  0
SECTION
  2
HEADER
  9
$ACADVER
  1
AC1009
  9
$EXTMIN
 10
0.0
 20
0.0
 30
0.0
  9
$EXTMAX
 10
1000.0
 20
1000.0
 30
0.0
  9
$FILLMODE
 70
 0
  9
$SPLFRAME
 70
 1
  0
ENDSEC
  0
SECTION
  2
TABLES
  0
TABLE
  2
LAYER
 70
1
  0
LAYER
  2
0
 70
     0
 62
     7
  6
CONTINUOUS
  0
ENDTAB
  0
ENDSEC
  0
SECTION
  2
ENTITIES
  0
POLYLINE
  8
0
 62
     0
 66
     1
 10
0
 20
0
 30
0.0
 70
     1
 40
0
 41
0
  0
VERTEX
  8
0
 10
14.8572
 20
7.25993
 30
0.0
 40
0
 41
0
  0
VERTEX
  8
0
 10
14.8557
 20
7.25999
 30
0.0
 40
0
 41
0
  0
VERTEX
  8
0
 10
14.8406
 20
7.25846
 30
0.0
 40
0
 41
0
  0
VERTEX
  8
0
 10
14.8392
 20
7.25808
 30
0.0
 40
0
 41
0
  0
VERTEX
  8
0
 10
14.8378
 20
7.25776
 30
0.0
 40
0
 41
0
  0
VERTEX
  8
0
 10
14.8271
 20
7.25179
 30
0.0
 40
0
 41
0
  0
VERTEX
  8
0
 10
14.8265
 20
7.25076
 30
0.0
 40
0
 41
0
  0
VERTEX
  8
0
 10
14.8264
 20
7.25043
 30
0.0
 40
0
 41
0
  0
VERTEX
  8
0
 10
14.8247
 20
7.24729
 30
0.0
 40
0
 41
0
  0
VERTEX
  8
0
 10
14.8247
 20
7.24696
 30
0.0
 40
0
 41
0
  0
VERTEX
  8
0
 10
14.8246
 20
7.24681
 30
0.0
 40
0
 41
0
  0
VERTEX
  8
0
 10
14.8243
 20
7.24496
 30
0.0
 40
0
 41
0
  0
VERTEX
  8
0
 10
14.8244
 20
7.24468
 30
0.0
 40
0
 41
0
  0
VERTEX
  8
0
 10
14.8244
 20
7.24447
 30
0.0
 40
0
 41
0
  0
VERTEX
  8
0
 10
14.8261
 20
7.24186
 30
0.0
 40
0
 41
0
  0
VERTEX
  8
0
 10
14.8264
 20
7.24169
 30
0.0
 40
0
 41
0
  0
VERTEX
  8
0
 10
14.8264
 20
7.24169
 30
0.0
 40
0
 41
0
  0
VERTEX
  8
0
 10
14.8265
 20
7.24175
 30
0.0
 40
0
 41
0
  0
VERTEX
  8
0
 10
14.8267
 20
7.24169
 30
0.0
 40
0
 41
0
  0
VERTEX
  8
0
 10
14.8262
 20
7.2416
 30
0.0
 40
0
 41
0
  0
VERTEX
  8
0
 10
14.8243
 20
7.24001
 30
0.0
 40
0
 41
0
  0
VERTEX
  8
0
 10
14.8236
 20
7.24001
 30
0.0
 40
0
 41
0
  0
VERTEX
  8
0
 10
14.8221
 20
7.24001
 30
0.0
 40
0
 41
0
  0
VERTEX
  8
0
 10
14.8178
 20
7.23801
 30
0.0
 40
0
 41
0
  0
VERTEX
  8
0
 10
14.8175
 20
7.23757
 30
0.0
 40
0
 41
0
  0
VERTEX
  8
0
 10
14.8169
 20
7.23719
 30
0.0
 40
0
 41
0
  0
VERTEX
  8
0
 10
14.8142
 20
7.23221
 30
0.0
 40
0
 41
0
  0
VERTEX
  8
0
 10
14.814
 20
7.23156
 30
0.0
 40
0
 41
0
  0
VERTEX
  8
0
 10
14.8135
 20
7.23036
 30
0.0
 40
0
 41
0
  0
VERTEX
  8
0
 10
14.8122
 20
7.21386
 30
0.0
 40
0
 41
0
  0
VERTEX
  8
0
 10
14.8124
 20
7.21169
 30
0.0
 40
0
 41
0
  0
VERTEX
  8
0
 10
14.8124
 20
7.20925
 30
0.0
 40
0
 41
0
  0
VERTEX
  8
0
 10
14.8163
 20
7.19049
 30
0.0
 40
0
 41
0
  0
VERTEX
  8
0
 10
14.8169
 20
7.18901
 30
0.0
 40
0
 41
0
  0
VERTEX
  8
0
 10
14.8178
 20
7.18761
 30
0.0
 40
0
 41
0
  0
VERTEX
  8
0
 10
14.8297
 20
7.17681
 30
0.0
 40
0
 41
0
  0
VERTEX
  8
0
 10
14.8314
 20
7.17594
 30
0.0
 40
0
 41
0
  0
VERTEX
  8
0
 10
14.8342
 20
7.17464
 30
0.0
 40
0
 41
0
  0
VERTEX
  8
0
 10
14.8661
 20
7.17122
 30
0.0
 40
0
 41
0
  0
VERTEX
  8
0
 10
14.8693
 20
7.17171
 30
0.0
 40
0
 41
0
  0
VERTEX
  8
0
 10
14.8725
 20
7.17225
 30
0.0
 40
0
 41
0
  0
VERTEX
  8
0
 10
14.8872
 20
7.17719
 30
0.0
 40
0
 41
0
  0
VERTEX
  8
0
 10
14.8979
 20
7.18549
 30
0.0
 40
0
 41
0
  0
VERTEX
  8
0
 10
14.8993
 20
7.18767
 30
0.0
 40
0
 41
0
  0
VERTEX
  8
0
 10
14.9004
 20
7.18972
 30
0.0
 40
0
 41
0
  0
VERTEX
  8
0
 10
14.9076
 20
7.21001
 30
0.0
 40
0
 41
0
  0
VERTEX
  8
0
 10
14.9078
 20
7.21186
 30
0.0
 40
0
 41
0
  0
VERTEX
  8
0
 10
14.9081
 20
7.21376
 30
0.0
 40
0
 41
0
  0
VERTEX
  8
0
 10
14.9031
 20
7.22874
 30
0.0
 40
0
 41
0
  0
VERTEX
  8
0
 10
14.9017
 20
7.22954
 30
0.0
 40
0
 41
0
  0
VERTEX
  8
0
 10
14.9015
 20
7.22965
 30
0.0
 40
0
 41
0
  0
VERTEX
  8
0
 10
14.8986
 20
7.23426
 30
0.0
 40
0
 41
0
  0
VERTEX
  8
0
 10
14.8983
 20
7.23503
 30
0.0
 40
0
 41
0
  0
VERTEX
  8
0
 10
14.8981
 20
7.23579
 30
0.0
 40
0
 41
0
  0
VERTEX
  8
0
 10
14.8965
 20
7.24457
 30
0.0
 40
0
 41
0
  0
VERTEX
  8
0
 10
14.8965
 20
7.24544
 30
0.0
 40
0
 41
0
  0
VERTEX
  8
0
 10
14.8965
 20
7.24729
 30
0.0
 40
0
 41
0
  0
VERTEX
  8
0
 10
14.8963
 20
7.25228
 30
0.0
 40
0
 41
0
  0
VERTEX
  8
0
 10
14.8963
 20
7.25271
 30
0.0
 40
0
 41
0
  0
VERTEX
  8
0
 10
14.8961
 20
7.25299
 30
0.0
 40
0
 41
0
  0
VERTEX
  8
0
 10
14.8957
 20
7.25515
 30
0.0
 40
0
 41
0
  0
VERTEX
  8
0
 10
14.8957
 20
7.25532
 30
0.0
 40
0
 41
0
  0
VERTEX
  8
0
 10
14.8956
 20
7.25553
 30
0.0
 40
0
 41
0
  0
VERTEX
  8
0
 10
14.894
 20
7.25776
 30
0.0
 40
0
 41
0
  0
VERTEX
  8
0
 10
14.8937
 20
7.25792
 30
0.0
 40
0
 41
0
  0
VERTEX
  8
0
 10
14.8935
 20
7.25814
 30
0.0
 40
0
 41
0
  0
VERTEX
  8
0
 10
14.89
 20
7.2584
 30
0.0
 40
0
 41
0
  0
VERTEX
  8
0
 10
14.8897
 20
7.25831
 30
0.0
 40
0
 41
0
  0
VERTEX
  8
0
 10
14.8894
 20
7.25819
 30
0.0
 40
0
 41
0
  0
VERTEX
  8
0
 10
14.8876
 20
7.25689
 30
0.0
 40
0
 41
0
  0
VERTEX
  8
0
 10
14.8875
 20
7.25672
 30
0.0
 40
0
 41
0
  0
VERTEX
  8
0
 10
14.8872
 20
7.25646
 30
0.0
 40
0
 41
0
  0
VERTEX
  8
0
 10
14.8842
 20
7.25233
 30
0.0
 40
0
 41
0
  0
VERTEX
  8
0
 10
14.8839
 20
7.25179
 30
0.0
 40
0
 41
0
  0
VERTEX
  8
0
 10
14.8838
 20
7.25163
 30
0.0
 40
0
 41
0
  0
VERTEX
  8
0
 10
14.8826
 20
7.25022
 30
0.0
 40
0
 41
0
  0
VERTEX
  8
0
 10
14.8825
 20
7.25006
 30
0.0
 40
0
 41
0
  0
VERTEX
  8
0
 10
14.8824
 20
7.25049
 30
0.0
 40
0
 41
0
  0
VERTEX
  8
0
 10
14.8806
 20
7.25418
 30
0.0
 40
0
 41
0
  0
VERTEX
  8
0
 10
14.8803
 20
7.25439
 30
0.0
 40
0
 41
0
  0
VERTEX
  8
0
 10
14.8799
 20
7.25478
 30
0.0
 40
0
 41
0
  0
VERTEX
  8
0
 10
14.8747
 20
7.25743
 30
0.0
 40
0
 41
0
  0
VERTEX
  8
0
 10
14.874
 20
7.2576
 30
0.0
 40
0
 41
0
  0
VERTEX
  8
0
 10
14.8729
 20
7.25797
 30
0.0
 40
0
 41
0
  0
VERTEX
  8
0
 10
14.8586
 20
7.25993
 30
0.0
 40
0
 41
0
  0
VERTEX
  8
0
 10
14.8571
 20
7.25993
 30
0.0
 40
0
 41
0
  0
VERTEX
  8
0
 10
14.8572
 20
7.25993
 30
0.0
 40
0
 41
0
  0
SEQEND
 8
0
  0
POLYLINE
  8
0
 62
     0
 66
     1
 10
0
 20
0
 30
0.0
 70
     1
 40
0
 41
0
  0
VERTEX
  8
0
 10
14.8571
 20
7.25325
 30
0.0
 40
0
 41
0
  0
VERTEX
  8
0
 10
14.8585
 20
7.25325
 30
0.0
 40
0
 41
0
  0
VERTEX
  8
0
 10
14.871
 20
7.25157
 30
0.0
 40
0
 41
0
  0
VERTEX
  8
0
 10
14.8719
 20
7.25125
 30
0.0
 40
0
 41
0
  0
VERTEX
  8
0
 10
14.8724
 20
7.25114
 30
0.0
 40
0
 41
0
  0
VERTEX
  8
0
 10
14.8758
 20
7.2494
 30
0.0
 40
0
 41
0
  0
VERTEX
  8
0
 10
14.876
 20
7.24924
 30
0.0
 40
0
 41
0
  0
VERTEX
  8
0
 10
14.8762
 20
7.24914
 30
0.0
 40
0
 41
0
  0
VERTEX
  8
0
 10
14.8768
 20
7.24826
 30
0.0
 40
0
 41
0
  0
VERTEX
  8
0
 10
14.8768
 20
7.24826
 30
0.0
 40
0
 41
0
  0
VERTEX
  8
0
 10
14.8768
 20
7.24718
 30
0.0
 40
0
 41
0
  0
VERTEX
  8
0
 10
14.8774
 20
7.24431
 30
0.0
 40
0
 41
0
  0
VERTEX
  8
0
 10
14.8775
 20
7.24393
 30
0.0
 40
0
 41
0
  0
VERTEX
  8
0
 10
14.8775
 20
7.24376
 30
0.0
 40
0
 41
0
  0
VERTEX
  8
0
 10
14.879
 20
7.24192
 30
0.0
 40
0
 41
0
  0
VERTEX
  8
0
 10
14.8793
 20
7.24175
 30
0.0
 40
0
 41
0
  0
VERTEX
  8
0
 10
14.8796
 20
7.24164
 30
0.0
 40
0
 41
0
  0
VERTEX
  8
0
 10
14.8824
 20
7.24132
 30
0.0
 40
0
 41
0
  0
VERTEX
  8
0
 10
14.8826
 20
7.24138
 30
0.0
 40
0
 41
0
  0
VERTEX
  8
0
 10
14.8831
 20
7.24149
 30
0.0
 40
0
 41
0
  0
VERTEX
  8
0
 10
14.886
 20
7.24365
 30
0.0
 40
0
 41
0
  0
VERTEX
  8
0
 10
14.8863
 20
7.24393
 30
0.0
 40
0
 41
0
  0
VERTEX
  8
0
 10
14.8865
 20
7.24419
 30
0.0
 40
0
 41
0
  0
VERTEX
  8
0
 10
14.8892
 20
7.24778
 30
0.0
 40
0
 41
0
  0
VERTEX
  8
0
 10
14.8894
 20
7.24821
 30
0.0
 40
0
 41
0
  0
VERTEX
  8
0
 10
14.8894
 20
7.24826
 30
0.0
 40
0
 41
0
  0
VERTEX
  8
0
 10
14.8896
 20
7.24854
 30
0.0
 40
0
 41
0
  0
VERTEX
  8
0
 10
14.8897
 20
7.24858
 30
0.0
 40
0
 41
0
  0
VERTEX
  8
0
 10
14.8897
 20
7.24778
 30
0.0
 40
0
 41
0
  0
VERTEX
  8
0
 10
14.8899
 20
7.24599
 30
0.0
 40
0
 41
0
  0
VERTEX
  8
0
 10
14.8899
 20
7.24533
 30
0.0
 40
0
 41
0
  0
VERTEX
  8
0
 10
14.8899
 20
7.24425
 30
0.0
 40
0
 41
0
  0
VERTEX
  8
0
 10
14.8917
 20
7.23372
 30
0.0
 40
0
 41
0
  0
VERTEX
  8
0
 10
14.8921
 20
7.23275
 30
0.0
 40
0
 41
0
  0
VERTEX
  8
0
 10
14.8924
 20
7.23182
 30
0.0
 40
0
 41
0
  0
VERTEX
  8
0
 10
14.8974
 20
7.22439
 30
0.0
 40
0
 41
0
  0
VERTEX
  8
0
 10
14.8981
 20
7.2239
 30
0.0
 40
0
 41
0
  0
VERTEX
  8
0
 10
14.8986
 20
7.22358
 30
0.0
 40
0
 41
0
  0
VERTEX
  8
0
 10
14.9013
 20
7.21403
 30
0.0
 40
0
 41
0
  0
VERTEX
  8
0
 10
14.9011
 20
7.21246
 30
0.0
 40
0
 41
0
  0
VERTEX
  8
0
 10
14.901
 20
7.21094
 30
0.0
 40
0
 41
0
  0
VERTEX
  8
0
 10
14.8946
 20
7.19299
 30
0.0
 40
0
 41
0
  0
VERTEX
  8
0
 10
14.8935
 20
7.19108
 30
0.0
 40
0
 41
0
  0
VERTEX
  8
0
 10
14.8926
 20
7.18967
 30
0.0
 40
0
 41
0
  0
VERTEX
  8
0
 10
14.8839
 20
7.18326
 30
0.0
 40
0
 41
0
  0
VERTEX
  8
0
 10
14.8711
 20
7.17876
 30
0.0
 40
0
 41
0
  0
VERTEX
  8
0
 10
14.8682
 20
7.17828
 30
0.0
 40
0
 41
0
  0
VERTEX
  8
0
 10
14.8653
 20
7.17785
 30
0.0
 40
0
 41
0
  0
VERTEX
  8
0
 10
14.8365
 20
7.18083
 30
0.0
 40
0
 41
0
  0
VERTEX
  8
0
 10
14.8343
 20
7.18192
 30
0.0
 40
0
 41
0
  0
VERTEX
  8
0
 10
14.8329
 20
7.18267
 30
0.0
 40
0
 41
0
  0
VERTEX
  8
0
 10
14.8233
 20
7.19103
 30
0.0
 40
0
 41
0
  0
VERTEX
  8
0
 10
14.8228
 20
7.19211
 30
0.0
 40
0
 41
0
  0
VERTEX
  8
0
 10
14.8222
 20
7.19319
 30
0.0
 40
0
 41
0
  0
VERTEX
  8
0
 10
14.819
 20
7.20964
 30
0.0
 40
0
 41
0
  0
VERTEX
  8
0
 10
14.8189
 20
7.21197
 30
0.0
 40
0
 41
0
  0
VERTEX
  8
0
 10
14.8189
 20
7.21403
 30
0.0
 40
0
 41
0
  0
VERTEX
  8
0
 10
14.82
 20
7.22874
 30
0.0
 40
0
 41
0
  0
VERTEX
  8
0
 10
14.8203
 20
7.22954
 30
0.0
 40
0
 41
0
  0
VERTEX
  8
0
 10
14.8204
 20
7.22999
 30
0.0
 40
0
 41
0
  0
VERTEX
  8
0
 10
14.8218
 20
7.23264
 30
0.0
 40
0
 41
0
  0
VERTEX
  8
0
 10
14.8219
 20
7.23275
 30
0.0
 40
0
 41
0
  0
VERTEX
  8
0
 10
14.8221
 20
7.23286
 30
0.0
 40
0
 41
0
  0
VERTEX
  8
0
 10
14.8232
 20
7.23335
 30
0.0
 40
0
 41
0
  0
VERTEX
  8
0
 10
14.8236
 20
7.23335
 30
0.0
 40
0
 41
0
  0
VERTEX
  8
0
 10
14.8276
 20
7.23335
 30
0.0
 40
0
 41
0
  0
VERTEX
  8
0
 10
14.8393
 20
7.24126
 30
0.0
 40
0
 41
0
  0
VERTEX
  8
0
 10
14.8401
 20
7.24262
 30
0.0
 40
0
 41
0
  0
VERTEX
  8
0
 10
14.8403
 20
7.243
 30
0.0
 40
0
 41
0
  0
VERTEX
  8
0
 10
14.8418
 20
7.24615
 30
0.0
 40
0
 41
0
  0
VERTEX
  8
0
 10
14.8419
 20
7.24642
 30
0.0
 40
0
 41
0
  0
VERTEX
  8
0
 10
14.8421
 20
7.24658
 30
0.0
 40
0
 41
0
  0
VERTEX
  8
0
 10
14.8422
 20
7.24843
 30
0.0
 40
0
 41
0
  0
VERTEX
  8
0
 10
14.8422
 20
7.24864
 30
0.0
 40
0
 41
0
  0
VERTEX
  8
0
 10
14.8422
 20
7.24886
 30
0.0
 40
0
 41
0
  0
VERTEX
  8
0
 10
14.8407
 20
7.25125
 30
0.0
 40
0
 41
0
  0
VERTEX
  8
0
 10
14.8404
 20
7.25142
 30
0.0
 40
0
 41
0
  0
VERTEX
  8
0
 10
14.8406
 20
7.25146
 30
0.0
 40
0
 41
0
  0
VERTEX
  8
0
 10
14.8408
 20
7.25157
 30
0.0
 40
0
 41
0
  0
VERTEX
  8
0
 10
14.8408
 20
7.25157
 30
0.0
 40
0
 41
0
  0
VERTEX
  8
0
 10
14.8419
 20
7.2519
 30
0.0
 40
0
 41
0
  0
VERTEX
  8
0
 10
14.8557
 20
7.25331
 30
0.0
 40
0
 41
0
  0
VERTEX
  8
0
 10
14.8571
 20
7.25325
 30
0.0
 40
0
 41
0
  0
SEQEND
 8
0
  0
POLYLINE
  8
0
 62
     0
 66
     1
 10
0
 20
0
 30
0.0
 70
     1
 40
0
 41
0
  0
VERTEX
  8
0
 10
2.63379
 20
7.241
 30
0.0
 40
0
 41
0
  0
VERTEX
  8
0
 10
2.62972
 20
7.24164
 30
0.0
 40
0
 41
0
  0
VERTEX
  8
0
 10
2.58886
 20
7.23497
 30
0.0
 40
0
 41
0
  0
VERTEX
  8
0
 10
2.58518
 20
7.23296
 30
0.0
 40
0
 41
0
  0
VERTEX
  8
0
 10
2.58301
 20
7.23182
 30
0.0
 40
0
 41
0
  0
VERTEX
  8
0
 10
2.57075
 20
7.21186
 30
0.0
 40
0
 41
0
  0
VERTEX
  8
0
 10
2.57036
 20
7.20931
 30
0.0
 40
0
 41
0
  0
VERTEX
  8
0
 10
2.56993
 20
7.20682
 30
0.0
 40
0
 41
0
  0
VERTEX
  8
0
 10
2.57264
 20
7.18012
 30
0.0
 40
0
 41
0
  0
VERTEX
  8
0
 10
2.57351
 20
7.17746
 30
0.0
 40
0
 41
0
  0
VERTEX
  8
0
 10
2.57433
 20
7.17486
 30
0.0
 40
0
 41
0
  0
VERTEX
  8
0
 10
2.5874
 20
7.15207
 30
0.0
 40
0
 41
0
  0
VERTEX
  8
0
 10
2.58914
 20
7.15033
 30
0.0
 40
0
 41
0
  0
VERTEX
  8
0
 10
2.59082
 20
7.14865
 30
0.0
 40
0
 41
0
  0
VERTEX
  8
0
 10
2.61208
 20
7.1415
 30
0.0
 40
0
 41
0
  0
VERTEX
  8
0
 10
2.61447
 20
7.14208
 30
0.0
 40
0
 41
0
  0
VERTEX
  8
0
 10
2.61529
 20
7.14236
 30
0.0
 40
0
 41
0
  0
VERTEX
  8
0
 10
2.61849
 20
7.14264
 30
0.0
 40
0
 41
0
  0
VERTEX
  8
0
 10
2.61957
 20
7.14264
 30
0.0
 40
0
 41
0
  0
VERTEX
  8
0
 10
2.61957
 20
7.14225
 30
0.0
 40
0
 41
0
  0
VERTEX
  8
0
 10
2.61925
 20
7.14122
 30
0.0
 40
0
 41
0
  0
VERTEX
  8
0
 10
2.61919
 20
7.14094
 30
0.0
 40
0
 41
0
  0
VERTEX
  8
0
 10
2.61897
 20
7.14046
 30
0.0
 40
0
 41
0
  0
VERTEX
  8
0
 10
2.61865
 20
7.13547
 30
0.0
 40
0
 41
0
  0
VERTEX
  8
0
 10
2.61888
 20
7.13493
 30
0.0
 40
0
 41
0
  0
VERTEX
  8
0
 10
2.61903
 20
7.13444
 30
0.0
 40
0
 41
0
  0
VERTEX
  8
0
 10
2.62267
 20
7.13112
 30
0.0
 40
0
 41
0
  0
VERTEX
  8
0
 10
2.62315
 20
7.13097
 30
0.0
 40
0
 41
0
  0
VERTEX
  8
0
 10
2.62403
 20
7.13069
 30
0.0
 40
0
 41
0
  0
VERTEX
  8
0
 10
2.63433
 20
7.13146
 30
0.0
 40
0
 41
0
  0
VERTEX
  8
0
 10
2.63558
 20
7.13178
 30
0.0
 40
0
 41
0
  0
VERTEX
  8
0
 10
2.63797
 20
7.13249
 30
0.0
 40
0
 41
0
  0
VERTEX
  8
0
 10
2.66726
 20
7.14746
 30
0.0
 40
0
 41
0
  0
VERTEX
  8
0
 10
2.67031
 20
7.14968
 30
0.0
 40
0
 41
0
  0
VERTEX
  8
0
 10
2.67324
 20
7.15186
 30
0.0
 40
0
 41
0
  0
VERTEX
  8
0
 10
2.6894
 20
7.1791
 30
0.0
 40
0
 41
0
  0
VERTEX
  8
0
 10
2.68967
 20
7.18218
 30
0.0
 40
0
 41
0
  0
VERTEX
  8
0
 10
2.68989
 20
7.18528
 30
0.0
 40
0
 41
0
  0
VERTEX
  8
0
 10
2.67811
 20
7.21619
 30
0.0
 40
0
 41
0
  0
VERTEX
  8
0
 10
2.67563
 20
7.21912
 30
0.0
 40
0
 41
0
  0
VERTEX
  8
0
 10
2.67301
 20
7.22211
 30
0.0
 40
0
 41
0
  0
VERTEX
  8
0
 10
2.6569
 20
7.23367
 30
0.0
 40
0
 41
0
  0
VERTEX
  8
0
 10
2.63786
 20
7.2404
 30
0.0
 40
0
 41
0
  0
VERTEX
  8
0
 10
2.63379
 20
7.241
 30
0.0
 40
0
 41
0
  0
SEQEND
 8
0
  0
POLYLINE
  8
0
 62
     0
 66
     1
 10
0
 20
0
 30
0.0
 70
     1
 40
0
 41
0
  0
VERTEX
  8
0
 10
9.68056
 20
7.23742
 30
0.0
 40
0
 41
0
  0
VERTEX
  8
0
 10
9.67768
 20
7.23714
 30
0.0
 40
0
 41
0
  0
VERTEX
  8
0
 10
9.64947
 20
7.22211
 30
0.0
 40
0
 41
0
  0
VERTEX
  8
0
 10
9.64675
 20
7.21946
 30
0.0
 40
0
 41
0
  0
VERTEX
  8
0
 10
9.6435
 20
7.21636
 30
0.0
 40
0
 41
0
  0
VERTEX
  8
0
 10
9.63297
 20
7.20019
 30
0.0
 40
0
 41
0
  0
VERTEX
  8
0
 10
9.63026
 20
7.18386
 30
0.0
 40
0
 41
0
  0
VERTEX
  8
0
 10
9.63097
 20
7.18067
 30
0.0
 40
0
 41
0
  0
VERTEX
  8
0
 10
9.63162
 20
7.17751
 30
0.0
 40
0
 41
0
  0
VERTEX
  8
0
 10
9.64074
 20
7.16331
 30
0.0
 40
0
 41
0
  0
VERTEX
  8
0
 10
9.65707
 20
7.15169
 30
0.0
 40
0
 41
0
  0
VERTEX
  8
0
 10
9.66135
 20
7.14979
 30
0.0
 40
0
 41
0
  0
VERTEX
  8
0
 10
9.66487
 20
7.14828
 30
0.0
 40
0
 41
0
  0
VERTEX
  8
0
 10
9.67899
 20
7.14285
 30
0.0
 40
0
 41
0
  0
VERTEX
  8
0
 10
9.69011
 20
7.14111
 30
0.0
 40
0
 41
0
  0
VERTEX
  8
0
 10
9.69217
 20
7.14139
 30
0.0
 40
0
 41
0
  0
VERTEX
  8
0
 10
9.69417
 20
7.14171
 30
0.0
 40
0
 41
0
  0
VERTEX
  8
0
 10
9.71468
 20
7.15543
 30
0.0
 40
0
 41
0
  0
VERTEX
  8
0
 10
9.71733
 20
7.15782
 30
0.0
 40
0
 41
0
  0
VERTEX
  8
0
 10
9.72054
 20
7.16081
 30
0.0
 40
0
 41
0
  0
VERTEX
  8
0
 10
9.73665
 20
7.18875
 30
0.0
 40
0
 41
0
  0
VERTEX
  8
0
 10
9.73665
 20
7.19803
 30
0.0
 40
0
 41
0
  0
VERTEX
  8
0
 10
9.73665
 20
7.20161
 30
0.0
 40
0
 41
0
  0
VERTEX
  8
0
 10
9.73546
 20
7.21143
 30
0.0
 40
0
 41
0
  0
VERTEX
  8
0
 10
9.73525
 20
7.21229
 30
0.0
 40
0
 41
0
  0
VERTEX
  8
0
 10
9.73508
 20
7.21278
 30
0.0
 40
0
 41
0
  0
VERTEX
  8
0
 10
9.73324
 20
7.21653
 30
0.0
 40
0
 41
0
  0
VERTEX
  8
0
 10
9.73292
 20
7.21685
 30
0.0
 40
0
 41
0
  0
VERTEX
  8
0
 10
9.73269
 20
7.21707
 30
0.0
 40
0
 41
0
  0
VERTEX
  8
0
 10
9.72988
 20
7.21826
 30
0.0
 40
0
 41
0
  0
VERTEX
  8
0
 10
9.72954
 20
7.21821
 30
0.0
 40
0
 41
0
  0
VERTEX
  8
0
 10
9.72917
 20
7.21821
 30
0.0
 40
0
 41
0
  0
VERTEX
  8
0
 10
9.72667
 20
7.2169
 30
0.0
 40
0
 41
0
  0
VERTEX
  8
0
 10
9.72651
 20
7.21674
 30
0.0
 40
0
 41
0
  0
VERTEX
  8
0
 10
9.72651
 20
7.21679
 30
0.0
 40
0
 41
0
  0
VERTEX
  8
0
 10
9.72635
 20
7.21701
 30
0.0
 40
0
 41
0
  0
VERTEX
  8
0
 10
9.72635
 20
7.21701
 30
0.0
 40
0
 41
0
  0
VERTEX
  8
0
 10
9.72613
 20
7.21707
 30
0.0
 40
0
 41
0
  0
VERTEX
  8
0
 10
9.72319
 20
7.21799
 30
0.0
 40
0
 41
0
  0
VERTEX
  8
0
 10
9.72288
 20
7.21815
 30
0.0
 40
0
 41
0
  0
VERTEX
  8
0
 10
9.72211
 20
7.21853
 30
0.0
 40
0
 41
0
  0
VERTEX
  8
0
 10
9.71317
 20
7.22493
 30
0.0
 40
0
 41
0
  0
VERTEX
  8
0
 10
9.71224
 20
7.22581
 30
0.0
 40
0
 41
0
  0
VERTEX
  8
0
 10
9.7099
 20
7.22803
 30
0.0
 40
0
 41
0
  0
VERTEX
  8
0
 10
9.68338
 20
7.23774
 30
0.0
 40
0
 41
0
  0
VERTEX
  8
0
 10
9.68056
 20
7.23742
 30
0.0
 40
0
 41
0
  0
SEQEND
 8
0
  0
POLYLINE
  8
0
 62
     0
 66
     1
 10
0
 20
0
 30
0.0
 70
     1
 40
0
 41
0
  0
VERTEX
  8
0
 10
2.60997
 20
7.23421
 30
0.0
 40
0
 41
0
  0
VERTEX
  8
0
 10
2.61561
 20
7.23514
 30
0.0
 40
0
 41
0
  0
VERTEX
  8
0
 10
2.64361
 20
7.23178
 30
0.0
 40
0
 41
0
  0
VERTEX
  8
0
 10
2.66715
 20
7.21875
 30
0.0
 40
0
 41
0
  0
VERTEX
  8
0
 10
2.67057
 20
7.21479
 30
0.0
 40
0
 41
0
  0
VERTEX
  8
0
 10
2.67285
 20
7.21213
 30
0.0
 40
0
 41
0
  0
VERTEX
  8
0
 10
2.68317
 20
7.18528
 30
0.0
 40
0
 41
0
  0
VERTEX
  8
0
 10
2.683
 20
7.18267
 30
0.0
 40
0
 41
0
  0
VERTEX
  8
0
 10
2.68278
 20
7.18012
 30
0.0
 40
0
 41
0
  0
VERTEX
  8
0
 10
2.66894
 20
7.15707
 30
0.0
 40
0
 41
0
  0
VERTEX
  8
0
 10
2.66635
 20
7.15511
 30
0.0
 40
0
 41
0
  0
VERTEX
  8
0
 10
2.66347
 20
7.153
 30
0.0
 40
0
 41
0
  0
VERTEX
  8
0
 10
2.6359
 20
7.13878
 30
0.0
 40
0
 41
0
  0
VERTEX
  8
0
 10
2.63379
 20
7.13818
 30
0.0
 40
0
 41
0
  0
VERTEX
  8
0
 10
2.63271
 20
7.13792
 30
0.0
 40
0
 41
0
  0
VERTEX
  8
0
 10
2.62549
 20
7.13726
 30
0.0
 40
0
 41
0
  0
VERTEX
  8
0
 10
2.62528
 20
7.13732
 30
0.0
 40
0
 41
0
  0
VERTEX
  8
0
 10
2.62522
 20
7.13732
 30
0.0
 40
0
 41
0
  0
VERTEX
  8
0
 10
2.62511
 20
7.13726
 30
0.0
 40
0
 41
0
  0
VERTEX
  8
0
 10
2.62511
 20
7.13721
 30
0.0
 40
0
 41
0
  0
VERTEX
  8
0
 10
2.62511
 20
7.13721
 30
0.0
 40
0
 41
0
  0
VERTEX
  8
0
 10
2.62532
 20
7.13829
 30
0.0
 40
0
 41
0
  0
VERTEX
  8
0
 10
2.62543
 20
7.13851
 30
0.0
 40
0
 41
0
  0
VERTEX
  8
0
 10
2.6256
 20
7.13894
 30
0.0
 40
0
 41
0
  0
VERTEX
  8
0
 10
2.62636
 20
7.14324
 30
0.0
 40
0
 41
0
  0
VERTEX
  8
0
 10
2.62636
 20
7.14367
 30
0.0
 40
0
 41
0
  0
VERTEX
  8
0
 10
2.62631
 20
7.1441
 30
0.0
 40
0
 41
0
  0
VERTEX
  8
0
 10
2.62397
 20
7.14806
 30
0.0
 40
0
 41
0
  0
VERTEX
  8
0
 10
2.62358
 20
7.14828
 30
0.0
 40
0
 41
0
  0
VERTEX
  8
0
 10
2.62278
 20
7.14882
 30
0.0
 40
0
 41
0
  0
VERTEX
  8
0
 10
2.61382
 20
7.14887
 30
0.0
 40
0
 41
0
  0
VERTEX
  8
0
 10
2.61279
 20
7.14854
 30
0.0
 40
0
 41
0
  0
VERTEX
  8
0
 10
2.61106
 20
7.14811
 30
0.0
 40
0
 41
0
  0
VERTEX
  8
0
 10
2.59526
 20
7.15369
 30
0.0
 40
0
 41
0
  0
VERTEX
  8
0
 10
2.59381
 20
7.15511
 30
0.0
 40
0
 41
0
  0
VERTEX
  8
0
 10
2.59233
 20
7.15657
 30
0.0
 40
0
 41
0
  0
VERTEX
  8
0
 10
2.58062
 20
7.17708
 30
0.0
 40
0
 41
0
  0
VERTEX
  8
0
 10
2.57986
 20
7.17947
 30
0.0
 40
0
 41
0
  0
VERTEX
  8
0
 10
2.57904
 20
7.18192
 30
0.0
 40
0
 41
0
  0
VERTEX
  8
0
 10
2.57661
 20
7.20611
 30
0.0
 40
0
 41
0
  0
VERTEX
  8
0
 10
2.57693
 20
7.20828
 30
0.0
 40
0
 41
0
  0
VERTEX
  8
0
 10
2.57726
 20
7.21044
 30
0.0
 40
0
 41
0
  0
VERTEX
  8
0
 10
2.58669
 20
7.22629
 30
0.0
 40
0
 41
0
  0
VERTEX
  8
0
 10
2.58832
 20
7.22711
 30
0.0
 40
0
 41
0
  0
VERTEX
  8
0
 10
2.59
 20
7.22803
 30
0.0
 40
0
 41
0
  0
VERTEX
  8
0
 10
2.60807
 20
7.23394
 30
0.0
 40
0
 41
0
  0
VERTEX
  8
0
 10
2.60997
 20
7.23421
 30
0.0
 40
0
 41
0
  0
SEQEND
 8
0
  0
POLYLINE
  8
0
 62
     0
 66
     1
 10
0
 20
0
 30
0.0
 70
     1
 40
0
 41
0
  0
VERTEX
  8
0
 10
9.68126
 20
7.23079
 30
0.0
 40
0
 41
0
  0
VERTEX
  8
0
 10
9.6836
 20
7.23107
 30
0.0
 40
0
 41
0
  0
VERTEX
  8
0
 10
9.70557
 20
7.22293
 30
0.0
 40
0
 41
0
  0
VERTEX
  8
0
 10
9.70762
 20
7.22097
 30
0.0
 40
0
 41
0
  0
VERTEX
  8
0
 10
9.70865
 20
7.22
 30
0.0
 40
0
 41
0
  0
VERTEX
  8
0
 10
9.71903
 20
7.21268
 30
0.0
 40
0
 41
0
  0
VERTEX
  8
0
 10
9.72
 20
7.21218
 30
0.0
 40
0
 41
0
  0
VERTEX
  8
0
 10
9.72043
 20
7.21197
 30
0.0
 40
0
 41
0
  0
VERTEX
  8
0
 10
9.7251
 20
7.21044
 30
0.0
 40
0
 41
0
  0
VERTEX
  8
0
 10
9.72558
 20
7.21039
 30
0.0
 40
0
 41
0
  0
VERTEX
  8
0
 10
9.72581
 20
7.21039
 30
0.0
 40
0
 41
0
  0
VERTEX
  8
0
 10
9.72831
 20
7.21121
 30
0.0
 40
0
 41
0
  0
VERTEX
  8
0
 10
9.72857
 20
7.21126
 30
0.0
 40
0
 41
0
  0
VERTEX
  8
0
 10
9.72857
 20
7.21121
 30
0.0
 40
0
 41
0
  0
VERTEX
  8
0
 10
9.72874
 20
7.21072
 30
0.0
 40
0
 41
0
  0
VERTEX
  8
0
 10
9.72879
 20
7.21056
 30
0.0
 40
0
 41
0
  0
VERTEX
  8
0
 10
9.72894
 20
7.20996
 30
0.0
 40
0
 41
0
  0
VERTEX
  8
0
 10
9.72999
 20
7.20101
 30
0.0
 40
0
 41
0
  0
VERTEX
  8
0
 10
9.72999
 20
7.19803
 30
0.0
 40
0
 41
0
  0
VERTEX
  8
0
 10
9.72999
 20
7.18924
 30
0.0
 40
0
 41
0
  0
VERTEX
  8
0
 10
9.71576
 20
7.16547
 30
0.0
 40
0
 41
0
  0
VERTEX
  8
0
 10
9.71278
 20
7.16271
 30
0.0
 40
0
 41
0
  0
VERTEX
  8
0
 10
9.71018
 20
7.16032
 30
0.0
 40
0
 41
0
  0
VERTEX
  8
0
 10
9.70025
 20
7.15207
 30
0.0
 40
0
 41
0
  0
VERTEX
  8
0
 10
9.69265
 20
7.14822
 30
0.0
 40
0
 41
0
  0
VERTEX
  8
0
 10
9.69125
 20
7.148
 30
0.0
 40
0
 41
0
  0
VERTEX
  8
0
 10
9.68978
 20
7.14785
 30
0.0
 40
0
 41
0
  0
VERTEX
  8
0
 10
9.68078
 20
7.14936
 30
0.0
 40
0
 41
0
  0
VERTEX
  8
0
 10
9.66754
 20
7.1544
 30
0.0
 40
0
 41
0
  0
VERTEX
  8
0
 10
9.66401
 20
7.15593
 30
0.0
 40
0
 41
0
  0
VERTEX
  8
0
 10
9.66004
 20
7.15767
 30
0.0
 40
0
 41
0
  0
VERTEX
  8
0
 10
9.64556
 20
7.16786
 30
0.0
 40
0
 41
0
  0
VERTEX
  8
0
 10
9.63797
 20
7.17964
 30
0.0
 40
0
 41
0
  0
VERTEX
  8
0
 10
9.63747
 20
7.18207
 30
0.0
 40
0
 41
0
  0
VERTEX
  8
0
 10
9.63693
 20
7.18457
 30
0.0
 40
0
 41
0
  0
VERTEX
  8
0
 10
9.64839
 20
7.21186
 30
0.0
 40
0
 41
0
  0
VERTEX
  8
0
 10
9.65136
 20
7.21468
 30
0.0
 40
0
 41
0
  0
VERTEX
  8
0
 10
9.65392
 20
7.21718
 30
0.0
 40
0
 41
0
  0
VERTEX
  8
0
 10
9.67888
 20
7.23058
 30
0.0
 40
0
 41
0
  0
VERTEX
  8
0
 10
9.68126
 20
7.23079
 30
0.0
 40
0
 41
0
  0
SEQEND
 8
0
  0
POLYLINE
  8
0
 62
     0
 66
     1
 10
0
 20
0
 30
0.0
 70
     1
 40
0
 41
0
  0
VERTEX
  8
0
 10
9.73118
 20
7.21203
 30
0.0
 40
0
 41
0
  0
VERTEX
  8
0
 10
9.73112
 20
7.21203
 30
0.0
 40
0
 41
0
  0
VERTEX
  8
0
 10
9.73004
 20
7.21158
 30
0.0
 40
0
 41
0
  0
VERTEX
  8
0
 10
9.72988
 20
7.21153
 30
0.0
 40
0
 41
0
  0
VERTEX
  8
0
 10
9.72988
 20
7.21153
 30
0.0
 40
0
 41
0
  0
VERTEX
  8
0
 10
9.72971
 20
7.21158
 30
0.0
 40
0
 41
0
  0
VERTEX
  8
0
 10
9.72971
 20
7.21158
 30
0.0
 40
0
 41
0
  0
VERTEX
  8
0
 10
9.72982
 20
7.21169
 30
0.0
 40
0
 41
0
  0
VERTEX
  8
0
 10
9.73107
 20
7.21192
 30
0.0
 40
0
 41
0
  0
VERTEX
  8
0
 10
9.73118
 20
7.21203
 30
0.0
 40
0
 41
0
  0
SEQEND
 8
0
  0
POLYLINE
  8
0
 62
     0
 66
     1
 10
0
 20
0
 30
0.0
 70
     1
 40
0
 41
0
  0
VERTEX
  8
0
 10
4.89242
 20
4.17746
 30
0.0
 40
0
 41
0
  0
VERTEX
  8
0
 10
4.89074
 20
4.17757
 30
0.0
 40
0
 41
0
  0
VERTEX
  8
0
 10
4.87294
 20
4.1735
 30
0.0
 40
0
 41
0
  0
VERTEX
  8
0
 10
4.87082
 20
4.17258
 30
0.0
 40
0
 41
0
  0
VERTEX
  8
0
 10
4.86578
 20
4.17051
 30
0.0
 40
0
 41
0
  0
VERTEX
  8
0
 10
4.84592
 20
4.15457
 30
0.0
 40
0
 41
0
  0
VERTEX
  8
0
 10
4.83365
 20
4.13396
 30
0.0
 40
0
 41
0
  0
VERTEX
  8
0
 10
4.83247
 20
4.12956
 30
0.0
 40
0
 41
0
  0
VERTEX
  8
0
 10
4.83128
 20
4.12522
 30
0.0
 40
0
 41
0
  0
VERTEX
  8
0
 10
4.83247
 20
4.10385
 30
0.0
 40
0
 41
0
  0
VERTEX
  8
0
 10
4.84407
 20
4.08669
 30
0.0
 40
0
 41
0
  0
VERTEX
  8
0
 10
4.8481
 20
4.08442
 30
0.0
 40
0
 41
0
  0
VERTEX
  8
0
 10
4.84978
 20
4.0835
 30
0.0
 40
0
 41
0
  0
VERTEX
  8
0
 10
4.86882
 20
4.06988
 30
0.0
 40
0
 41
0
  0
VERTEX
  8
0
 10
4.87007
 20
4.06874
 30
0.0
 40
0
 41
0
  0
VERTEX
  8
0
 10
4.87121
 20
4.06771
 30
0.0
 40
0
 41
0
  0
VERTEX
  8
0
 10
4.88672
 20
4.06288
 30
0.0
 40
0
 41
0
  0
VERTEX
  8
0
 10
4.88851
 20
4.06282
 30
0.0
 40
0
 41
0
  0
VERTEX
  8
0
 10
4.89025
 20
4.06282
 30
0.0
 40
0
 41
0
  0
VERTEX
  8
0
 10
4.90826
 20
4.0656
 30
0.0
 40
0
 41
0
  0
VERTEX
  8
0
 10
4.91
 20
4.06614
 30
0.0
 40
0
 41
0
  0
VERTEX
  8
0
 10
4.91168
 20
4.06674
 30
0.0
 40
0
 41
0
  0
VERTEX
  8
0
 10
4.92546
 20
4.07438
 30
0.0
 40
0
 41
0
  0
VERTEX
  8
0
 10
4.92643
 20
4.07536
 30
0.0
 40
0
 41
0
  0
VERTEX
  8
0
 10
4.92785
 20
4.07954
 30
0.0
 40
0
 41
0
  0
VERTEX
  8
0
 10
4.93246
 20
4.09201
 30
0.0
 40
0
 41
0
  0
VERTEX
  8
0
 10
4.93604
 20
4.10161
 30
0.0
 40
0
 41
0
  0
VERTEX
  8
0
 10
4.93778
 20
4.10894
 30
0.0
 40
0
 41
0
  0
VERTEX
  8
0
 10
4.93821
 20
4.11632
 30
0.0
 40
0
 41
0
  0
VERTEX
  8
0
 10
4.93821
 20
4.11876
 30
0.0
 40
0
 41
0
  0
VERTEX
  8
0
 10
4.93892
 20
4.11985
 30
0.0
 40
0
 41
0
  0
VERTEX
  8
0
 10
4.94038
 20
4.12587
 30
0.0
 40
0
 41
0
  0
VERTEX
  8
0
 10
4.94038
 20
4.12587
 30
0.0
 40
0
 41
0
  0
VERTEX
  8
0
 10
4.94119
 20
4.12646
 30
0.0
 40
0
 41
0
  0
VERTEX
  8
0
 10
4.94303
 20
4.1371
 30
0.0
 40
0
 41
0
  0
VERTEX
  8
0
 10
4.94308
 20
4.13803
 30
0.0
 40
0
 41
0
  0
VERTEX
  8
0
 10
4.94308
 20
4.139
 30
0.0
 40
0
 41
0
  0
VERTEX
  8
0
 10
4.93994
 20
4.14828
 30
0.0
 40
0
 41
0
  0
VERTEX
  8
0
 10
4.93935
 20
4.14914
 30
0.0
 40
0
 41
0
  0
VERTEX
  8
0
 10
4.93815
 20
4.15099
 30
0.0
 40
0
 41
0
  0
VERTEX
  8
0
 10
4.91737
 20
4.16835
 30
0.0
 40
0
 41
0
  0
VERTEX
  8
0
 10
4.91456
 20
4.16982
 30
0.0
 40
0
 41
0
  0
VERTEX
  8
0
 10
4.91228
 20
4.17101
 30
0.0
 40
0
 41
0
  0
VERTEX
  8
0
 10
4.89404
 20
4.17736
 30
0.0
 40
0
 41
0
  0
VERTEX
  8
0
 10
4.89242
 20
4.17746
 30
0.0
 40
0
 41
0
  0
SEQEND
 8
0
  0
POLYLINE
  8
0
 62
     0
 66
     1
 10
0
 20
0
 30
0.0
 70
     1
 40
0
 41
0
  0
VERTEX
  8
0
 10
4.89199
 20
4.17079
 30
0.0
 40
0
 41
0
  0
VERTEX
  8
0
 10
4.89328
 20
4.17074
 30
0.0
 40
0
 41
0
  0
VERTEX
  8
0
 10
4.90929
 20
4.16504
 30
0.0
 40
0
 41
0
  0
VERTEX
  8
0
 10
4.91146
 20
4.1639
 30
0.0
 40
0
 41
0
  0
VERTEX
  8
0
 10
4.91411
 20
4.16254
 30
0.0
 40
0
 41
0
  0
VERTEX
  8
0
 10
4.93278
 20
4.14703
 30
0.0
 40
0
 41
0
  0
VERTEX
  8
0
 10
4.93375
 20
4.14556
 30
0.0
 40
0
 41
0
  0
VERTEX
  8
0
 10
4.93419
 20
4.14486
 30
0.0
 40
0
 41
0
  0
VERTEX
  8
0
 10
4.93642
 20
4.13861
 30
0.0
 40
0
 41
0
  0
VERTEX
  8
0
 10
4.93642
 20
4.13813
 30
0.0
 40
0
 41
0
  0
VERTEX
  8
0
 10
4.93642
 20
4.13704
 30
0.0
 40
0
 41
0
  0
VERTEX
  8
0
 10
4.93446
 20
4.134
 30
0.0
 40
0
 41
0
  0
VERTEX
  8
0
 10
4.93403
 20
4.13368
 30
0.0
 40
0
 41
0
  0
VERTEX
  8
0
 10
4.93332
 20
4.13325
 30
0.0
 40
0
 41
0
  0
VERTEX
  8
0
 10
4.93099
 20
4.12136
 30
0.0
 40
0
 41
0
  0
VERTEX
  8
0
 10
4.92839
 20
4.10818
 30
0.0
 40
0
 41
0
  0
VERTEX
  8
0
 10
4.92763
 20
4.10704
 30
0.0
 40
0
 41
0
  0
VERTEX
  8
0
 10
4.92649
 20
4.10265
 30
0.0
 40
0
 41
0
  0
VERTEX
  8
0
 10
4.92356
 20
4.08914
 30
0.0
 40
0
 41
0
  0
VERTEX
  8
0
 10
4.9221
 20
4.08344
 30
0.0
 40
0
 41
0
  0
VERTEX
  8
0
 10
4.91851
 20
4.081
 30
0.0
 40
0
 41
0
  0
VERTEX
  8
0
 10
4.91037
 20
4.07482
 30
0.0
 40
0
 41
0
  0
VERTEX
  8
0
 10
4.90793
 20
4.07254
 30
0.0
 40
0
 41
0
  0
VERTEX
  8
0
 10
4.90642
 20
4.07206
 30
0.0
 40
0
 41
0
  0
VERTEX
  8
0
 10
4.89019
 20
4.0695
 30
0.0
 40
0
 41
0
  0
VERTEX
  8
0
 10
4.88867
 20
4.0695
 30
0.0
 40
0
 41
0
  0
VERTEX
  8
0
 10
4.8871
 20
4.06956
 30
0.0
 40
0
 41
0
  0
VERTEX
  8
0
 10
4.87528
 20
4.07303
 30
0.0
 40
0
 41
0
  0
VERTEX
  8
0
 10
4.87462
 20
4.07362
 30
0.0
 40
0
 41
0
  0
VERTEX
  8
0
 10
4.87321
 20
4.07493
 30
0.0
 40
0
 41
0
  0
VERTEX
  8
0
 10
4.85319
 20
4.08925
 30
0.0
 40
0
 41
0
  0
VERTEX
  8
0
 10
4.85135
 20
4.09028
 30
0.0
 40
0
 41
0
  0
VERTEX
  8
0
 10
4.84804
 20
4.09212
 30
0.0
 40
0
 41
0
  0
VERTEX
  8
0
 10
4.8386
 20
4.10601
 30
0.0
 40
0
 41
0
  0
VERTEX
  8
0
 10
4.83783
 20
4.12397
 30
0.0
 40
0
 41
0
  0
VERTEX
  8
0
 10
4.83892
 20
4.12782
 30
0.0
 40
0
 41
0
  0
VERTEX
  8
0
 10
4.83996
 20
4.13172
 30
0.0
 40
0
 41
0
  0
VERTEX
  8
0
 10
4.85097
 20
4.15018
 30
0.0
 40
0
 41
0
  0
VERTEX
  8
0
 10
4.86893
 20
4.16461
 30
0.0
 40
0
 41
0
  0
VERTEX
  8
0
 10
4.87343
 20
4.16644
 30
0.0
 40
0
 41
0
  0
VERTEX
  8
0
 10
4.87543
 20
4.16732
 30
0.0
 40
0
 41
0
  0
VERTEX
  8
0
 10
4.89068
 20
4.17096
 30
0.0
 40
0
 41
0
  0
VERTEX
  8
0
 10
4.89199
 20
4.17085
 30
0.0
 40
0
 41
0
  0
VERTEX
  8
0
 10
4.89199
 20
4.17079
 30
0.0
 40
0
 41
0
  0
SEQEND
 8
0
  0
POLYLINE
  8
0
 62
     0
 66
     1
 10
0
 20
0
 30
0.0
 70
     1
 40
0
 41
0
  0
VERTEX
  8
0
 10
14.8656
 20
1.12288
 30
0.0
 40
0
 41
0
  0
VERTEX
  8
0
 10
14.8636
 20
1.12321
 30
0.0
 40
0
 41
0
  0
VERTEX
  8
0
 10
14.8443
 20
1.11849
 30
0.0
 40
0
 41
0
  0
VERTEX
  8
0
 10
14.8426
 20
1.11751
 30
0.0
 40
0
 41
0
  0
VERTEX
  8
0
 10
14.8418
 20
1.11702
 30
0.0
 40
0
 41
0
  0
VERTEX
  8
0
 10
14.8353
 20
1.11133
 30
0.0
 40
0
 41
0
  0
VERTEX
  8
0
 10
14.8349
 20
1.11062
 30
0.0
 40
0
 41
0
  0
VERTEX
  8
0
 10
14.8343
 20
1.10997
 30
0.0
 40
0
 41
0
  0
VERTEX
  8
0
 10
14.8336
 20
1.10183
 30
0.0
 40
0
 41
0
  0
VERTEX
  8
0
 10
14.8342
 20
1.10107
 30
0.0
 40
0
 41
0
  0
VERTEX
  8
0
 10
14.8342
 20
1.10097
 30
0.0
 40
0
 41
0
  0
VERTEX
  8
0
 10
14.8344
 20
1.10053
 30
0.0
 40
0
 41
0
  0
VERTEX
  8
0
 10
14.8344
 20
1.10042
 30
0.0
 40
0
 41
0
  0
VERTEX
  8
0
 10
14.8329
 20
1.10064
 30
0.0
 40
0
 41
0
  0
VERTEX
  8
0
 10
14.8196
 20
1.09966
 30
0.0
 40
0
 41
0
  0
VERTEX
  8
0
 10
14.8185
 20
1.09912
 30
0.0
 40
0
 41
0
  0
VERTEX
  8
0
 10
14.8174
 20
1.09858
 30
0.0
 40
0
 41
0
  0
VERTEX
  8
0
 10
14.8104
 20
1.08914
 30
0.0
 40
0
 41
0
  0
VERTEX
  8
0
 10
14.8103
 20
1.08789
 30
0.0
 40
0
 41
0
  0
VERTEX
  8
0
 10
14.8099
 20
1.0855
 30
0.0
 40
0
 41
0
  0
VERTEX
  8
0
 10
14.8135
 20
1.0721
 30
0.0
 40
0
 41
0
  0
VERTEX
  8
0
 10
14.824
 20
1.05778
 30
0.0
 40
0
 41
0
  0
VERTEX
  8
0
 10
14.8271
 20
1.05485
 30
0.0
 40
0
 41
0
  0
VERTEX
  8
0
 10
14.8283
 20
1.05377
 30
0.0
 40
0
 41
0
  0
VERTEX
  8
0
 10
14.8425
 20
1.04465
 30
0.0
 40
0
 41
0
  0
VERTEX
  8
0
 10
14.844
 20
1.04395
 30
0.0
 40
0
 41
0
  0
VERTEX
  8
0
 10
14.8456
 20
1.04329
 30
0.0
 40
0
 41
0
  0
VERTEX
  8
0
 10
14.86
 20
1.04009
 30
0.0
 40
0
 41
0
  0
VERTEX
  8
0
 10
14.8614
 20
1.0402
 30
0.0
 40
0
 41
0
  0
VERTEX
  8
0
 10
14.8628
 20
1.04037
 30
0.0
 40
0
 41
0
  0
VERTEX
  8
0
 10
14.8747
 20
1.04091
 30
0.0
 40
0
 41
0
  0
VERTEX
  8
0
 10
14.8757
 20
1.04085
 30
0.0
 40
0
 41
0
  0
VERTEX
  8
0
 10
14.8758
 20
1.04085
 30
0.0
 40
0
 41
0
  0
VERTEX
  8
0
 10
14.8769
 20
1.04074
 30
0.0
 40
0
 41
0
  0
VERTEX
  8
0
 10
14.8771
 20
1.04069
 30
0.0
 40
0
 41
0
  0
VERTEX
  8
0
 10
14.8769
 20
1.04064
 30
0.0
 40
0
 41
0
  0
VERTEX
  8
0
 10
14.8756
 20
1.03982
 30
0.0
 40
0
 41
0
  0
VERTEX
  8
0
 10
14.8753
 20
1.03971
 30
0.0
 40
0
 41
0
  0
VERTEX
  8
0
 10
14.8746
 20
1.03944
 30
0.0
 40
0
 41
0
  0
VERTEX
  8
0
 10
14.869
 20
1.03678
 30
0.0
 40
0
 41
0
  0
VERTEX
  8
0
 10
14.8688
 20
1.03651
 30
0.0
 40
0
 41
0
  0
VERTEX
  8
0
 10
14.8685
 20
1.0364
 30
0.0
 40
0
 41
0
  0
VERTEX
  8
0
 10
14.8667
 20
1.03478
 30
0.0
 40
0
 41
0
  0
VERTEX
  8
0
 10
14.8665
 20
1.03451
 30
0.0
 40
0
 41
0
  0
VERTEX
  8
0
 10
14.8664
 20
1.0344
 30
0.0
 40
0
 41
0
  0
VERTEX
  8
0
 10
14.8657
 20
1.03223
 30
0.0
 40
0
 41
0
  0
VERTEX
  8
0
 10
14.8658
 20
1.03196
 30
0.0
 40
0
 41
0
  0
VERTEX
  8
0
 10
14.8658
 20
1.03168
 30
0.0
 40
0
 41
0
  0
VERTEX
  8
0
 10
14.8669
 20
1.02957
 30
0.0
 40
0
 41
0
  0
VERTEX
  8
0
 10
14.8671
 20
1.02941
 30
0.0
 40
0
 41
0
  0
VERTEX
  8
0
 10
14.8674
 20
1.02919
 30
0.0
 40
0
 41
0
  0
VERTEX
  8
0
 10
14.8697
 20
1.0281
 30
0.0
 40
0
 41
0
  0
VERTEX
  8
0
 10
14.87
 20
1.02805
 30
0.0
 40
0
 41
0
  0
VERTEX
  8
0
 10
14.8701
 20
1.02799
 30
0.0
 40
0
 41
0
  0
VERTEX
  8
0
 10
14.8729
 20
1.02767
 30
0.0
 40
0
 41
0
  0
VERTEX
  8
0
 10
14.8732
 20
1.02762
 30
0.0
 40
0
 41
0
  0
VERTEX
  8
0
 10
14.8738
 20
1.02756
 30
0.0
 40
0
 41
0
  0
VERTEX
  8
0
 10
14.8824
 20
1.02718
 30
0.0
 40
0
 41
0
  0
VERTEX
  8
0
 10
14.8835
 20
1.02713
 30
0.0
 40
0
 41
0
  0
VERTEX
  8
0
 10
14.8856
 20
1.02713
 30
0.0
 40
0
 41
0
  0
VERTEX
  8
0
 10
14.9026
 20
1.03093
 30
0.0
 40
0
 41
0
  0
VERTEX
  8
0
 10
14.904
 20
1.0319
 30
0.0
 40
0
 41
0
  0
VERTEX
  8
0
 10
14.9054
 20
1.03288
 30
0.0
 40
0
 41
0
  0
VERTEX
  8
0
 10
14.9178
 20
1.04921
 30
0.0
 40
0
 41
0
  0
VERTEX
  8
0
 10
14.919
 20
1.05159
 30
0.0
 40
0
 41
0
  0
VERTEX
  8
0
 10
14.9203
 20
1.05398
 30
0.0
 40
0
 41
0
  0
VERTEX
  8
0
 10
14.9276
 20
1.07199
 30
0.0
 40
0
 41
0
  0
VERTEX
  8
0
 10
14.9278
 20
1.07341
 30
0.0
 40
0
 41
0
  0
VERTEX
  8
0
 10
14.9281
 20
1.07487
 30
0.0
 40
0
 41
0
  0
VERTEX
  8
0
 10
14.9236
 20
1.08751
 30
0.0
 40
0
 41
0
  0
VERTEX
  8
0
 10
14.9226
 20
1.0886
 30
0.0
 40
0
 41
0
  0
VERTEX
  8
0
 10
14.9221
 20
1.08941
 30
0.0
 40
0
 41
0
  0
VERTEX
  8
0
 10
14.914
 20
1.09608
 30
0.0
 40
0
 41
0
  0
VERTEX
  8
0
 10
14.9132
 20
1.09657
 30
0.0
 40
0
 41
0
  0
VERTEX
  8
0
 10
14.9122
 20
1.09711
 30
0.0
 40
0
 41
0
  0
VERTEX
  8
0
 10
14.9049
 20
1.09999
 30
0.0
 40
0
 41
0
  0
VERTEX
  8
0
 10
14.9025
 20
1.09999
 30
0.0
 40
0
 41
0
  0
VERTEX
  8
0
 10
14.9011
 20
1.09999
 30
0.0
 40
0
 41
0
  0
VERTEX
  8
0
 10
14.8967
 20
1.10503
 30
0.0
 40
0
 41
0
  0
VERTEX
  8
0
 10
14.8967
 20
1.10666
 30
0.0
 40
0
 41
0
  0
VERTEX
  8
0
 10
14.8967
 20
1.1091
 30
0.0
 40
0
 41
0
  0
VERTEX
  8
0
 10
14.8929
 20
1.11627
 30
0.0
 40
0
 41
0
  0
VERTEX
  8
0
 10
14.8854
 20
1.12071
 30
0.0
 40
0
 41
0
  0
VERTEX
  8
0
 10
14.8836
 20
1.12082
 30
0.0
 40
0
 41
0
  0
VERTEX
  8
0
 10
14.8822
 20
1.12093
 30
0.0
 40
0
 41
0
  0
VERTEX
  8
0
 10
14.8665
 20
1.12272
 30
0.0
 40
0
 41
0
  0
VERTEX
  8
0
 10
14.8656
 20
1.12288
 30
0.0
 40
0
 41
0
  0
SEQEND
 8
0
  0
POLYLINE
  8
0
 62
     0
 66
     1
 10
0
 20
0
 30
0.0
 70
     1
 40
0
 41
0
  0
VERTEX
  8
0
 10
14.8644
 20
1.11632
 30
0.0
 40
0
 41
0
  0
VERTEX
  8
0
 10
14.8657
 20
1.11616
 30
0.0
 40
0
 41
0
  0
VERTEX
  8
0
 10
14.8817
 20
1.11431
 30
0.0
 40
0
 41
0
  0
VERTEX
  8
0
 10
14.8831
 20
1.1142
 30
0.0
 40
0
 41
0
  0
VERTEX
  8
0
 10
14.8839
 20
1.11415
 30
0.0
 40
0
 41
0
  0
VERTEX
  8
0
 10
14.89
 20
1.10856
 30
0.0
 40
0
 41
0
  0
VERTEX
  8
0
 10
14.89
 20
1.10666
 30
0.0
 40
0
 41
0
  0
VERTEX
  8
0
 10
14.89
 20
1.10433
 30
0.0
 40
0
 41
0
  0
VERTEX
  8
0
 10
14.8936
 20
1.09733
 30
0.0
 40
0
 41
0
  0
VERTEX
  8
0
 10
14.9003
 20
1.09337
 30
0.0
 40
0
 41
0
  0
VERTEX
  8
0
 10
14.9025
 20
1.09337
 30
0.0
 40
0
 41
0
  0
VERTEX
  8
0
 10
14.9043
 20
1.09337
 30
0.0
 40
0
 41
0
  0
VERTEX
  8
0
 10
14.909
 20
1.09125
 30
0.0
 40
0
 41
0
  0
VERTEX
  8
0
 10
14.9099
 20
1.09082
 30
0.0
 40
0
 41
0
  0
VERTEX
  8
0
 10
14.9106
 20
1.09044
 30
0.0
 40
0
 41
0
  0
VERTEX
  8
0
 10
14.9171
 20
1.08502
 30
0.0
 40
0
 41
0
  0
VERTEX
  8
0
 10
14.9176
 20
1.08436
 30
0.0
 40
0
 41
0
  0
VERTEX
  8
0
 10
14.9183
 20
1.08344
 30
0.0
 40
0
 41
0
  0
VERTEX
  8
0
 10
14.9214
 20
1.07525
 30
0.0
 40
0
 41
0
  0
VERTEX
  8
0
 10
14.9212
 20
1.07422
 30
0.0
 40
0
 41
0
  0
VERTEX
  8
0
 10
14.9211
 20
1.07324
 30
0.0
 40
0
 41
0
  0
VERTEX
  8
0
 10
14.9144
 20
1.05713
 30
0.0
 40
0
 41
0
  0
VERTEX
  8
0
 10
14.9132
 20
1.05474
 30
0.0
 40
0
 41
0
  0
VERTEX
  8
0
 10
14.9119
 20
1.05246
 30
0.0
 40
0
 41
0
  0
VERTEX
  8
0
 10
14.9013
 20
1.03809
 30
0.0
 40
0
 41
0
  0
VERTEX
  8
0
 10
14.9003
 20
1.03738
 30
0.0
 40
0
 41
0
  0
VERTEX
  8
0
 10
14.8992
 20
1.03668
 30
0.0
 40
0
 41
0
  0
VERTEX
  8
0
 10
14.8856
 20
1.03375
 30
0.0
 40
0
 41
0
  0
VERTEX
  8
0
 10
14.8836
 20
1.0338
 30
0.0
 40
0
 41
0
  0
VERTEX
  8
0
 10
14.8831
 20
1.03385
 30
0.0
 40
0
 41
0
  0
VERTEX
  8
0
 10
14.879
 20
1.03402
 30
0.0
 40
0
 41
0
  0
VERTEX
  8
0
 10
14.8788
 20
1.03402
 30
0.0
 40
0
 41
0
  0
VERTEX
  8
0
 10
14.8794
 20
1.0344
 30
0.0
 40
0
 41
0
  0
VERTEX
  8
0
 10
14.8857
 20
1.03792
 30
0.0
 40
0
 41
0
  0
VERTEX
  8
0
 10
14.8861
 20
1.0383
 30
0.0
 40
0
 41
0
  0
VERTEX
  8
0
 10
14.8864
 20
1.03852
 30
0.0
 40
0
 41
0
  0
VERTEX
  8
0
 10
14.8879
 20
1.0421
 30
0.0
 40
0
 41
0
  0
VERTEX
  8
0
 10
14.8879
 20
1.04259
 30
0.0
 40
0
 41
0
  0
VERTEX
  8
0
 10
14.8878
 20
1.04313
 30
0.0
 40
0
 41
0
  0
VERTEX
  8
0
 10
14.885
 20
1.04612
 30
0.0
 40
0
 41
0
  0
VERTEX
  8
0
 10
14.8847
 20
1.04622
 30
0.0
 40
0
 41
0
  0
VERTEX
  8
0
 10
14.8842
 20
1.0465
 30
0.0
 40
0
 41
0
  0
VERTEX
  8
0
 10
14.8768
 20
1.04753
 30
0.0
 40
0
 41
0
  0
VERTEX
  8
0
 10
14.8758
 20
1.04753
 30
0.0
 40
0
 41
0
  0
VERTEX
  8
0
 10
14.8749
 20
1.04758
 30
0.0
 40
0
 41
0
  0
VERTEX
  8
0
 10
14.8622
 20
1.04698
 30
0.0
 40
0
 41
0
  0
VERTEX
  8
0
 10
14.8607
 20
1.04682
 30
0.0
 40
0
 41
0
  0
VERTEX
  8
0
 10
14.8599
 20
1.04677
 30
0.0
 40
0
 41
0
  0
VERTEX
  8
0
 10
14.8479
 20
1.04953
 30
0.0
 40
0
 41
0
  0
VERTEX
  8
0
 10
14.8465
 20
1.05008
 30
0.0
 40
0
 41
0
  0
VERTEX
  8
0
 10
14.8453
 20
1.05067
 30
0.0
 40
0
 41
0
  0
VERTEX
  8
0
 10
14.8326
 20
1.05876
 30
0.0
 40
0
 41
0
  0
VERTEX
  8
0
 10
14.8317
 20
1.05968
 30
0.0
 40
0
 41
0
  0
VERTEX
  8
0
 10
14.8288
 20
1.06239
 30
0.0
 40
0
 41
0
  0
VERTEX
  8
0
 10
14.8196
 20
1.07514
 30
0.0
 40
0
 41
0
  0
VERTEX
  8
0
 10
14.8165
 20
1.08545
 30
0.0
 40
0
 41
0
  0
VERTEX
  8
0
 10
14.8168
 20
1.08691
 30
0.0
 40
0
 41
0
  0
VERTEX
  8
0
 10
14.8169
 20
1.08767
 30
0.0
 40
0
 41
0
  0
VERTEX
  8
0
 10
14.8207
 20
1.09283
 30
0.0
 40
0
 41
0
  0
VERTEX
  8
0
 10
14.8214
 20
1.09315
 30
0.0
 40
0
 41
0
  0
VERTEX
  8
0
 10
14.8221
 20
1.09353
 30
0.0
 40
0
 41
0
  0
VERTEX
  8
0
 10
14.8333
 20
1.09429
 30
0.0
 40
0
 41
0
  0
VERTEX
  8
0
 10
14.8349
 20
1.09402
 30
0.0
 40
0
 41
0
  0
VERTEX
  8
0
 10
14.8351
 20
1.09397
 30
0.0
 40
0
 41
0
  0
VERTEX
  8
0
 10
14.8385
 20
1.09429
 30
0.0
 40
0
 41
0
  0
VERTEX
  8
0
 10
14.8388
 20
1.0944
 30
0.0
 40
0
 41
0
  0
VERTEX
  8
0
 10
14.839
 20
1.09456
 30
0.0
 40
0
 41
0
  0
VERTEX
  8
0
 10
14.8412
 20
1.09733
 30
0.0
 40
0
 41
0
  0
VERTEX
  8
0
 10
14.8414
 20
1.09766
 30
0.0
 40
0
 41
0
  0
VERTEX
  8
0
 10
14.8415
 20
1.09831
 30
0.0
 40
0
 41
0
  0
VERTEX
  8
0
 10
14.8401
 20
1.10406
 30
0.0
 40
0
 41
0
  0
VERTEX
  8
0
 10
14.8397
 20
1.1046
 30
0.0
 40
0
 41
0
  0
VERTEX
  8
0
 10
14.8397
 20
1.10476
 30
0.0
 40
0
 41
0
  0
VERTEX
  8
0
 10
14.8401
 20
1.10655
 30
0.0
 40
0
 41
0
  0
VERTEX
  8
0
 10
14.8404
 20
1.10688
 30
0.0
 40
0
 41
0
  0
VERTEX
  8
0
 10
14.8406
 20
1.10726
 30
0.0
 40
0
 41
0
  0
VERTEX
  8
0
 10
14.8454
 20
1.11144
 30
0.0
 40
0
 41
0
  0
VERTEX
  8
0
 10
14.8461
 20
1.11182
 30
0.0
 40
0
 41
0
  0
VERTEX
  8
0
 10
14.8475
 20
1.11263
 30
0.0
 40
0
 41
0
  0
VERTEX
  8
0
 10
14.8632
 20
1.11654
 30
0.0
 40
0
 41
0
  0
VERTEX
  8
0
 10
14.8646
 20
1.11632
 30
0.0
 40
0
 41
0
  0
VERTEX
  8
0
 10
14.8644
 20
1.11632
 30
0.0
 40
0
 41
0
  0
SEQEND
 8
0
  0
POLYLINE
  8
0
 62
     0
 66
     1
 10
0
 20
0
 30
0.0
 70
     1
 40
0
 41
0
  0
VERTEX
  8
0
 10
9.33735
 20
1.10883
 30
0.0
 40
0
 41
0
  0
VERTEX
  8
0
 10
9.33708
 20
1.10889
 30
0.0
 40
0
 41
0
  0
VERTEX
  8
0
 10
9.33431
 20
1.1084
 30
0.0
 40
0
 41
0
  0
VERTEX
  8
0
 10
9.33404
 20
1.10824
 30
0.0
 40
0
 41
0
  0
VERTEX
  8
0
 10
9.33371
 20
1.10813
 30
0.0
 40
0
 41
0
  0
VERTEX
  8
0
 10
9.33165
 20
1.10563
 30
0.0
 40
0
 41
0
  0
VERTEX
  8
0
 10
9.3316
 20
1.10531
 30
0.0
 40
0
 41
0
  0
VERTEX
  8
0
 10
9.33154
 20
1.10514
 30
0.0
 40
0
 41
0
  0
VERTEX
  8
0
 10
9.32981
 20
1.10384
 30
0.0
 40
0
 41
0
  0
VERTEX
  8
0
 10
9.32949
 20
1.10373
 30
0.0
 40
0
 41
0
  0
VERTEX
  8
0
 10
9.3291
 20
1.10368
 30
0.0
 40
0
 41
0
  0
VERTEX
  8
0
 10
9.32454
 20
1.10406
 30
0.0
 40
0
 41
0
  0
VERTEX
  8
0
 10
9.32406
 20
1.10422
 30
0.0
 40
0
 41
0
  0
VERTEX
  8
0
 10
9.32026
 20
1.10569
 30
0.0
 40
0
 41
0
  0
VERTEX
  8
0
 10
9.30171
 20
1.10558
 30
0.0
 40
0
 41
0
  0
VERTEX
  8
0
 10
9.28494
 20
1.09717
 30
0.0
 40
0
 41
0
  0
VERTEX
  8
0
 10
9.28212
 20
1.09446
 30
0.0
 40
0
 41
0
  0
VERTEX
  8
0
 10
9.27924
 20
1.09174
 30
0.0
 40
0
 41
0
  0
VERTEX
  8
0
 10
9.26844
 20
1.07411
 30
0.0
 40
0
 41
0
  0
VERTEX
  8
0
 10
9.26335
 20
1.05409
 30
0.0
 40
0
 41
0
  0
VERTEX
  8
0
 10
9.26335
 20
1.04736
 30
0.0
 40
0
 41
0
  0
VERTEX
  8
0
 10
9.26335
 20
1.04031
 30
0.0
 40
0
 41
0
  0
VERTEX
  8
0
 10
9.27468
 20
1.0211
 30
0.0
 40
0
 41
0
  0
VERTEX
  8
0
 10
9.27653
 20
1.01915
 30
0.0
 40
0
 41
0
  0
VERTEX
  8
0
 10
9.2774
 20
1.01818
 30
0.0
 40
0
 41
0
  0
VERTEX
  8
0
 10
9.287
 20
1.01052
 30
0.0
 40
0
 41
0
  0
VERTEX
  8
0
 10
9.28803
 20
1.01004
 30
0.0
 40
0
 41
0
  0
VERTEX
  8
0
 10
9.28901
 20
1.00955
 30
0.0
 40
0
 41
0
  0
VERTEX
  8
0
 10
9.29937
 20
1.00906
 30
0.0
 40
0
 41
0
  0
VERTEX
  8
0
 10
9.30035
 20
1.0096
 30
0.0
 40
0
 41
0
  0
VERTEX
  8
0
 10
9.30035
 20
1.00966
 30
0.0
 40
0
 41
0
  0
VERTEX
  8
0
 10
9.30485
 20
1.00949
 30
0.0
 40
0
 41
0
  0
VERTEX
  8
0
 10
9.30561
 20
1.00928
 30
0.0
 40
0
 41
0
  0
VERTEX
  8
0
 10
9.30632
 20
1.00906
 30
0.0
 40
0
 41
0
  0
VERTEX
  8
0
 10
9.31429
 20
1.0051
 30
0.0
 40
0
 41
0
  0
VERTEX
  8
0
 10
9.31511
 20
1.0045
 30
0.0
 40
0
 41
0
  0
VERTEX
  8
0
 10
9.31685
 20
1.0032
 30
0.0
 40
0
 41
0
  0
VERTEX
  8
0
 10
9.33871
 20
0.999024
 30
0.0
 40
0
 41
0
  0
VERTEX
  8
0
 10
9.34088
 20
0.999295
 30
0.0
 40
0
 41
0
  0
VERTEX
  8
0
 10
9.3419
 20
0.999457
 30
0.0
 40
0
 41
0
  0
VERTEX
  8
0
 10
9.35129
 20
1.00266
 30
0.0
 40
0
 41
0
  0
VERTEX
  8
0
 10
9.35206
 20
1.00315
 30
0.0
 40
0
 41
0
  0
VERTEX
  8
0
 10
9.35281
 20
1.00369
 30
0.0
 40
0
 41
0
  0
VERTEX
  8
0
 10
9.35699
 20
1.01177
 30
0.0
 40
0
 41
0
  0
VERTEX
  8
0
 10
9.35688
 20
1.01275
 30
0.0
 40
0
 41
0
  0
VERTEX
  8
0
 10
9.35688
 20
1.01275
 30
0.0
 40
0
 41
0
  0
VERTEX
  8
0
 10
9.3571
 20
1.01356
 30
0.0
 40
0
 41
0
  0
VERTEX
  8
0
 10
9.35721
 20
1.01373
 30
0.0
 40
0
 41
0
  0
VERTEX
  8
0
 10
9.35726
 20
1.01394
 30
0.0
 40
0
 41
0
  0
VERTEX
  8
0
 10
9.35867
 20
1.01666
 30
0.0
 40
0
 41
0
  0
VERTEX
  8
0
 10
9.35889
 20
1.01693
 30
0.0
 40
0
 41
0
  0
VERTEX
  8
0
 10
9.35926
 20
1.01758
 30
0.0
 40
0
 41
0
  0
VERTEX
  8
0
 10
9.36475
 20
1.02436
 30
0.0
 40
0
 41
0
  0
VERTEX
  8
0
 10
9.36546
 20
1.02501
 30
0.0
 40
0
 41
0
  0
VERTEX
  8
0
 10
9.36762
 20
1.02723
 30
0.0
 40
0
 41
0
  0
VERTEX
  8
0
 10
9.37651
 20
1.05577
 30
0.0
 40
0
 41
0
  0
VERTEX
  8
0
 10
9.37614
 20
1.05892
 30
0.0
 40
0
 41
0
  0
VERTEX
  8
0
 10
9.37571
 20
1.06212
 30
0.0
 40
0
 41
0
  0
VERTEX
  8
0
 10
9.36019
 20
1.09272
 30
0.0
 40
0
 41
0
  0
VERTEX
  8
0
 10
9.35753
 20
1.09538
 30
0.0
 40
0
 41
0
  0
VERTEX
  8
0
 10
9.35622
 20
1.09668
 30
0.0
 40
0
 41
0
  0
VERTEX
  8
0
 10
9.34435
 20
1.10617
 30
0.0
 40
0
 41
0
  0
VERTEX
  8
0
 10
9.34332
 20
1.10672
 30
0.0
 40
0
 41
0
  0
VERTEX
  8
0
 10
9.34278
 20
1.10704
 30
0.0
 40
0
 41
0
  0
VERTEX
  8
0
 10
9.33783
 20
1.10883
 30
0.0
 40
0
 41
0
  0
VERTEX
  8
0
 10
9.33735
 20
1.10883
 30
0.0
 40
0
 41
0
  0
SEQEND
 8
0
  0
POLYLINE
  8
0
 62
     0
 66
     1
 10
0
 20
0
 30
0.0
 70
     1
 40
0
 41
0
  0
VERTEX
  8
0
 10
9.33789
 20
1.10324
 30
0.0
 40
0
 41
0
  0
VERTEX
  8
0
 10
9.33783
 20
1.10319
 30
0.0
 40
0
 41
0
  0
VERTEX
  8
0
 10
9.33718
 20
1.10238
 30
0.0
 40
0
 41
0
  0
VERTEX
  8
0
 10
9.33713
 20
1.10232
 30
0.0
 40
0
 41
0
  0
VERTEX
  8
0
 10
9.33703
 20
1.10232
 30
0.0
 40
0
 41
0
  0
VERTEX
  8
0
 10
9.33681
 20
1.10221
 30
0.0
 40
0
 41
0
  0
VERTEX
  8
0
 10
9.33681
 20
1.10221
 30
0.0
 40
0
 41
0
  0
VERTEX
  8
0
 10
9.33686
 20
1.10221
 30
0.0
 40
0
 41
0
  0
VERTEX
  8
0
 10
9.33963
 20
1.10113
 30
0.0
 40
0
 41
0
  0
VERTEX
  8
0
 10
9.34006
 20
1.10086
 30
0.0
 40
0
 41
0
  0
VERTEX
  8
0
 10
9.34088
 20
1.10042
 30
0.0
 40
0
 41
0
  0
VERTEX
  8
0
 10
9.35157
 20
1.09191
 30
0.0
 40
0
 41
0
  0
VERTEX
  8
0
 10
9.35281
 20
1.09066
 30
0.0
 40
0
 41
0
  0
VERTEX
  8
0
 10
9.35519
 20
1.08822
 30
0.0
 40
0
 41
0
  0
VERTEX
  8
0
 10
9.36914
 20
1.06093
 30
0.0
 40
0
 41
0
  0
VERTEX
  8
0
 10
9.36951
 20
1.05816
 30
0.0
 40
0
 41
0
  0
VERTEX
  8
0
 10
9.36985
 20
1.05545
 30
0.0
 40
0
 41
0
  0
VERTEX
  8
0
 10
9.36253
 20
1.03157
 30
0.0
 40
0
 41
0
  0
VERTEX
  8
0
 10
9.36074
 20
1.02973
 30
0.0
 40
0
 41
0
  0
VERTEX
  8
0
 10
9.35997
 20
1.02902
 30
0.0
 40
0
 41
0
  0
VERTEX
  8
0
 10
9.35368
 20
1.02127
 30
0.0
 40
0
 41
0
  0
VERTEX
  8
0
 10
9.35325
 20
1.02051
 30
0.0
 40
0
 41
0
  0
VERTEX
  8
0
 10
9.35297
 20
1.02013
 30
0.0
 40
0
 41
0
  0
VERTEX
  8
0
 10
9.35113
 20
1.01655
 30
0.0
 40
0
 41
0
  0
VERTEX
  8
0
 10
9.35101
 20
1.01617
 30
0.0
 40
0
 41
0
  0
VERTEX
  8
0
 10
9.35086
 20
1.01584
 30
0.0
 40
0
 41
0
  0
VERTEX
  8
0
 10
9.35021
 20
1.01215
 30
0.0
 40
0
 41
0
  0
VERTEX
  8
0
 10
9.35032
 20
1.01172
 30
0.0
 40
0
 41
0
  0
VERTEX
  8
0
 10
9.35032
 20
1.01145
 30
0.0
 40
0
 41
0
  0
VERTEX
  8
0
 10
9.34879
 20
1.00901
 30
0.0
 40
0
 41
0
  0
VERTEX
  8
0
 10
9.34836
 20
1.00868
 30
0.0
 40
0
 41
0
  0
VERTEX
  8
0
 10
9.34788
 20
1.00841
 30
0.0
 40
0
 41
0
  0
VERTEX
  8
0
 10
9.34082
 20
1.00608
 30
0.0
 40
0
 41
0
  0
VERTEX
  8
0
 10
9.33996
 20
1.00591
 30
0.0
 40
0
 41
0
  0
VERTEX
  8
0
 10
9.33817
 20
1.0057
 30
0.0
 40
0
 41
0
  0
VERTEX
  8
0
 10
9.32026
 20
1.00901
 30
0.0
 40
0
 41
0
  0
VERTEX
  8
0
 10
9.31907
 20
1.00987
 30
0.0
 40
0
 41
0
  0
VERTEX
  8
0
 10
9.31808
 20
1.01058
 30
0.0
 40
0
 41
0
  0
VERTEX
  8
0
 10
9.30838
 20
1.01541
 30
0.0
 40
0
 41
0
  0
VERTEX
  8
0
 10
9.30746
 20
1.01568
 30
0.0
 40
0
 41
0
  0
VERTEX
  8
0
 10
9.30647
 20
1.01595
 30
0.0
 40
0
 41
0
  0
VERTEX
  8
0
 10
9.29764
 20
1.01584
 30
0.0
 40
0
 41
0
  0
VERTEX
  8
0
 10
9.29688
 20
1.0153
 30
0.0
 40
0
 41
0
  0
VERTEX
  8
0
 10
9.29656
 20
1.01514
 30
0.0
 40
0
 41
0
  0
VERTEX
  8
0
 10
9.29161
 20
1.01568
 30
0.0
 40
0
 41
0
  0
VERTEX
  8
0
 10
9.2909
 20
1.016
 30
0.0
 40
0
 41
0
  0
VERTEX
  8
0
 10
9.29015
 20
1.01638
 30
0.0
 40
0
 41
0
  0
VERTEX
  8
0
 10
9.28217
 20
1.02279
 30
0.0
 40
0
 41
0
  0
VERTEX
  8
0
 10
9.28142
 20
1.02365
 30
0.0
 40
0
 41
0
  0
VERTEX
  8
0
 10
9.27979
 20
1.02539
 30
0.0
 40
0
 41
0
  0
VERTEX
  8
0
 10
9.27001
 20
1.04188
 30
0.0
 40
0
 41
0
  0
VERTEX
  8
0
 10
9.27001
 20
1.04736
 30
0.0
 40
0
 41
0
  0
VERTEX
  8
0
 10
9.27001
 20
1.05344
 30
0.0
 40
0
 41
0
  0
VERTEX
  8
0
 10
9.27463
 20
1.07156
 30
0.0
 40
0
 41
0
  0
VERTEX
  8
0
 10
9.28424
 20
1.08729
 30
0.0
 40
0
 41
0
  0
VERTEX
  8
0
 10
9.28674
 20
1.08963
 30
0.0
 40
0
 41
0
  0
VERTEX
  8
0
 10
9.28917
 20
1.09201
 30
0.0
 40
0
 41
0
  0
VERTEX
  8
0
 10
9.30322
 20
1.09918
 30
0.0
 40
0
 41
0
  0
VERTEX
  8
0
 10
9.31853
 20
1.09923
 30
0.0
 40
0
 41
0
  0
VERTEX
  8
0
 10
9.32167
 20
1.09798
 30
0.0
 40
0
 41
0
  0
VERTEX
  8
0
 10
9.32249
 20
1.09771
 30
0.0
 40
0
 41
0
  0
VERTEX
  8
0
 10
9.33046
 20
1.09711
 30
0.0
 40
0
 41
0
  0
VERTEX
  8
0
 10
9.33122
 20
1.09728
 30
0.0
 40
0
 41
0
  0
VERTEX
  8
0
 10
9.33192
 20
1.09749
 30
0.0
 40
0
 41
0
  0
VERTEX
  8
0
 10
9.33763
 20
1.10248
 30
0.0
 40
0
 41
0
  0
VERTEX
  8
0
 10
9.33789
 20
1.10324
 30
0.0
 40
0
 41
0
  0
SEQEND
 8
0
  0
POLYLINE
  8
0
 62
     0
 66
     1
 10
0
 20
0
 30
0.0
 70
     1
 40
0
 41
0
  0
VERTEX
  8
0
 10
9.31282
 20
1.07552
 30
0.0
 40
0
 41
0
  0
VERTEX
  8
0
 10
9.3125
 20
1.07557
 30
0.0
 40
0
 41
0
  0
VERTEX
  8
0
 10
9.30935
 20
1.07492
 30
0.0
 40
0
 41
0
  0
VERTEX
  8
0
 10
9.30914
 20
1.07471
 30
0.0
 40
0
 41
0
  0
VERTEX
  8
0
 10
9.3086
 20
1.07438
 30
0.0
 40
0
 41
0
  0
VERTEX
  8
0
 10
9.3061
 20
1.06955
 30
0.0
 40
0
 41
0
  0
VERTEX
  8
0
 10
9.30599
 20
1.06896
 30
0.0
 40
0
 41
0
  0
VERTEX
  8
0
 10
9.30583
 20
1.06841
 30
0.0
 40
0
 41
0
  0
VERTEX
  8
0
 10
9.3049
 20
1.0612
 30
0.0
 40
0
 41
0
  0
VERTEX
  8
0
 10
9.30485
 20
1.06027
 30
0.0
 40
0
 41
0
  0
VERTEX
  8
0
 10
9.30485
 20
1.06022
 30
0.0
 40
0
 41
0
  0
VERTEX
  8
0
 10
9.30474
 20
1.05908
 30
0.0
 40
0
 41
0
  0
VERTEX
  8
0
 10
9.30544
 20
1.04937
 30
0.0
 40
0
 41
0
  0
VERTEX
  8
0
 10
9.30567
 20
1.04856
 30
0.0
 40
0
 41
0
  0
VERTEX
  8
0
 10
9.30588
 20
1.0478
 30
0.0
 40
0
 41
0
  0
VERTEX
  8
0
 10
9.31006
 20
1.04156
 30
0.0
 40
0
 41
0
  0
VERTEX
  8
0
 10
9.31071
 20
1.04118
 30
0.0
 40
0
 41
0
  0
VERTEX
  8
0
 10
9.31131
 20
1.0408
 30
0.0
 40
0
 41
0
  0
VERTEX
  8
0
 10
9.31858
 20
1.04096
 30
0.0
 40
0
 41
0
  0
VERTEX
  8
0
 10
9.31928
 20
1.04129
 30
0.0
 40
0
 41
0
  0
VERTEX
  8
0
 10
9.31993
 20
1.04167
 30
0.0
 40
0
 41
0
  0
VERTEX
  8
0
 10
9.32596
 20
1.04801
 30
0.0
 40
0
 41
0
  0
VERTEX
  8
0
 10
9.32656
 20
1.04888
 30
0.0
 40
0
 41
0
  0
VERTEX
  8
0
 10
9.32704
 20
1.0497
 30
0.0
 40
0
 41
0
  0
VERTEX
  8
0
 10
9.32758
 20
1.05859
 30
0.0
 40
0
 41
0
  0
VERTEX
  8
0
 10
9.32736
 20
1.05946
 30
0.0
 40
0
 41
0
  0
VERTEX
  8
0
 10
9.3271
 20
1.06038
 30
0.0
 40
0
 41
0
  0
VERTEX
  8
0
 10
9.322
 20
1.06896
 30
0.0
 40
0
 41
0
  0
VERTEX
  8
0
 10
9.32129
 20
1.06966
 30
0.0
 40
0
 41
0
  0
VERTEX
  8
0
 10
9.32075
 20
1.0702
 30
0.0
 40
0
 41
0
  0
VERTEX
  8
0
 10
9.31625
 20
1.07406
 30
0.0
 40
0
 41
0
  0
VERTEX
  8
0
 10
9.31581
 20
1.07433
 30
0.0
 40
0
 41
0
  0
VERTEX
  8
0
 10
9.3156
 20
1.07449
 30
0.0
 40
0
 41
0
  0
VERTEX
  8
0
 10
9.3131
 20
1.07552
 30
0.0
 40
0
 41
0
  0
VERTEX
  8
0
 10
9.31282
 20
1.07552
 30
0.0
 40
0
 41
0
  0
SEQEND
 8
0
  0
POLYLINE
  8
0
 62
     0
 66
     1
 10
0
 20
0
 30
0.0
 70
     1
 40
0
 41
0
  0
VERTEX
  8
0
 10
9.31267
 20
1.06836
 30
0.0
 40
0
 41
0
  0
VERTEX
  8
0
 10
9.31287
 20
1.0682
 30
0.0
 40
0
 41
0
  0
VERTEX
  8
0
 10
9.31608
 20
1.06538
 30
0.0
 40
0
 41
0
  0
VERTEX
  8
0
 10
9.31657
 20
1.06494
 30
0.0
 40
0
 41
0
  0
VERTEX
  8
0
 10
9.31706
 20
1.0644
 30
0.0
 40
0
 41
0
  0
VERTEX
  8
0
 10
9.32075
 20
1.05827
 30
0.0
 40
0
 41
0
  0
VERTEX
  8
0
 10
9.32096
 20
1.05762
 30
0.0
 40
0
 41
0
  0
VERTEX
  8
0
 10
9.32112
 20
1.05702
 30
0.0
 40
0
 41
0
  0
VERTEX
  8
0
 10
9.32101
 20
1.05263
 30
0.0
 40
0
 41
0
  0
VERTEX
  8
0
 10
9.3209
 20
1.05241
 30
0.0
 40
0
 41
0
  0
VERTEX
  8
0
 10
9.32042
 20
1.0517
 30
0.0
 40
0
 41
0
  0
VERTEX
  8
0
 10
9.31635
 20
1.04731
 30
0.0
 40
0
 41
0
  0
VERTEX
  8
0
 10
9.31608
 20
1.04715
 30
0.0
 40
0
 41
0
  0
VERTEX
  8
0
 10
9.31575
 20
1.04698
 30
0.0
 40
0
 41
0
  0
VERTEX
  8
0
 10
9.31424
 20
1.04682
 30
0.0
 40
0
 41
0
  0
VERTEX
  8
0
 10
9.31413
 20
1.04688
 30
0.0
 40
0
 41
0
  0
VERTEX
  8
0
 10
9.31396
 20
1.04698
 30
0.0
 40
0
 41
0
  0
VERTEX
  8
0
 10
9.31222
 20
1.04986
 30
0.0
 40
0
 41
0
  0
VERTEX
  8
0
 10
9.31207
 20
1.0504
 30
0.0
 40
0
 41
0
  0
VERTEX
  8
0
 10
9.3119
 20
1.05094
 30
0.0
 40
0
 41
0
  0
VERTEX
  8
0
 10
9.31142
 20
1.0587
 30
0.0
 40
0
 41
0
  0
VERTEX
  8
0
 10
9.31153
 20
1.05968
 30
0.0
 40
0
 41
0
  0
VERTEX
  8
0
 10
9.31158
 20
1.0606
 30
0.0
 40
0
 41
0
  0
VERTEX
  8
0
 10
9.31239
 20
1.06717
 30
0.0
 40
0
 41
0
  0
VERTEX
  8
0
 10
9.3125
 20
1.06755
 30
0.0
 40
0
 41
0
  0
VERTEX
  8
0
 10
9.3125
 20
1.06776
 30
0.0
 40
0
 41
0
  0
VERTEX
  8
0
 10
9.31261
 20
1.06831
 30
0.0
 40
0
 41
0
  0
VERTEX
  8
0
 10
9.31267
 20
1.06836
 30
0.0
 40
0
 41
0
  0
SEQEND
 8
0
  0
ENDSEC
  0
EOF
