  0
SECTION
  2
HEADER
  9
$ACADVER
  1
AC1014
  9
$HANDSEED
  5
FFFF
  9
$MEASUREMENT
 70
     1
  0
ENDSEC
  0
SECTION
  2
TABLES
  0
TABLE
  2
VPORT
  5
8
330
0
100
AcDbSymbolTable
 70
     4
  0
VPORT
  5
2E
330
8
100
AcDbSymbolTableRecord
100
AcDbViewportTableRecord
  2
*ACTIVE
 70
     0
 10
0.0
 20
0.0
 11
1.0
 21
1.0
 12
210.0
 22
148.5
 13
0.0
 23
0.0
 14
10.0
 24
10.0
 15
10.0
 25
10.0
 16
0.0
 26
0.0
 36
1.0
 17
0.0
 27
0.0
 37
0.0
 40
341.0
 41
1.24
 42
50.0
 43
0.0
 44
0.0
 50
0.0
 51
0.0
 71
     0
 72
   100
 73
     1
 74
     3
 75
     0
 76
     0
 77
     0
 78
     0
  0
ENDTAB
  0
TABLE
  2
LTYPE
  5
5
330
0
100
AcDbSymbolTable
 70
     1
  0
LTYPE
  5
14
330
5
100
AcDbSymbolTableRecord
100
AcDbLinetypeTableRecord
  2
BYBLOCK
 70
     0
  3

 72
    65
 73
     0
 40
0.0
  0
LTYPE
  5
15
330
5
100
AcDbSymbolTableRecord
100
AcDbLinetypeTableRecord
  2
BYLAYER
 70
     0
  3

 72
    65
 73
     0
 40
0.0
  0
LTYPE
  5
16
330
5
100
AcDbSymbolTableRecord
100
AcDbLinetypeTableRecord
  2
CONTINUOUS
 70
     0
  3
Solid line
 72
    65
 73
     0
 40
0.0
  0
ENDTAB
  0
TABLE
  2
LAYER
  5
2
100
AcDbSymbolTable
 70
2
  0
LAYER
  5
50
100
AcDbSymbolTableRecord
100
AcDbLayerTableRecord
  2
0
 70
0
  6
CONTINUOUS
  0
LAYER
  5
51
100
AcDbSymbolTableRecord
100
AcDbLayerTableRecord
  2
ink_ext_XXXXXX
 70
0
  6
CONTINUOUS
  0
ENDTAB
  0
TABLE
  2
STYLE
  5
3
330
0
100
AcDbSymbolTable
 70
     1
  0
STYLE
  5
11
330
3
100
AcDbSymbolTableRecord
100
AcDbTextStyleTableRecord
  2
STANDARD
 70
     0
 40
0.0
 41
1.0
 50
0.0
 71
     0
 42
2.5
  3
txt
  4

  0
ENDTAB
  0
TABLE
  2
VIEW
  5
6
330
0
100
AcDbSymbolTable
 70
     0
  0
ENDTAB
  0
TABLE
  2
UCS
  5
7
330
0
100
AcDbSymbolTable
 70
     0
  0
ENDTAB
  0
TABLE
  2
APPID
  5
9
330
0
100
AcDbSymbolTable
 70
     2
  0
APPID
  5
12
330
9
100
AcDbSymbolTableRecord
100
AcDbRegAppTableRecord
  2
ACAD
 70
     0
  0
ENDTAB
  0
TABLE
  2
DIMSTYLE
  5
A
330
0
100
AcDbSymbolTable
 70
     1
  0
DIMSTYLE
105
27
330
A
100
AcDbSymbolTableRecord
100
AcDbDimStyleTableRecord
  2
ISO-25
 70
     0
  3

  4

  5

  6

  7

 40
1.0
 41
2.5
 42
0.625
 43
3.75
 44
1.25
 45
0.0
 46
0.0
 47
0.0
 48
0.0
140
2.5
141
2.5
142
0.0
143
0.03937007874016
144
1.0
145
0.0
146
1.0
147
0.625
 71
     0
 72
     0
 73
     0
 74
     0
 75
     0
 76
     0
 77
     1
 78
     8
170
     0
171
     3
172
     1
173
     0
174
     0
175
     0
176
     0
177
     0
178
     0
270
     2
271
     2
272
     2
273
     2
274
     3
340
11
275
     0
280
     0
281
     0
282
     0
283
     0
284
     8
285
     0
286
     0
287
     3
288
     0
  0
ENDTAB
  0
TABLE
  2
BLOCK_RECORD
  5
1
330
0
100
AcDbSymbolTable
 70
     1
  0
BLOCK_RECORD
  5
1F
330
1
100
AcDbSymbolTableRecord
100
AcDbBlockTableRecord
  2
*MODEL_SPACE
  0
BLOCK_RECORD
  5
1B
330
1
100
AcDbSymbolTableRecord
100
AcDbBlockTableRecord
  2
*PAPER_SPACE
  0
ENDTAB
  0
ENDSEC
  0
SECTION
  2
BLOCKS
  0
BLOCK
  5
20
330
1F
100
AcDbEntity
  8
0
100
AcDbBlockBegin
  2
*MODEL_SPACE
 70
     0
 10
0.0
 20
0.0
 30
0.0
  3
*MODEL_SPACE
  1

  0
ENDBLK
  5
21
330
1F
100
AcDbEntity
  8
0
100
AcDbBlockEnd
  0
BLOCK
  5
1C
330
1B
100
AcDbEntity
 67
     1
  8
0
100
AcDbBlockBegin
  2
*PAPER_SPACE
  1

  0
ENDBLK
  5
1D
330
1B
100
AcDbEntity
 67
     1
  8
0
100
AcDbBlockEnd
  0
ENDSEC
  0
SECTION
  2
ENTITIES
  0
LWPOLYLINE
  5
100
100
AcDbEntity
  8
ink_ext_XXXXXX
 62
7
100
AcDbPolyline
 90
17
 70
0
 10
198.298000
 20
487.726000
 30
0.0
 10
214.842330
 20
474.300080
 30
0.0
 10
228.488380
 20
463.840880
 30
0.0
 10
242.826490
 20
461.377240
 30
0.0
 10
261.447000
 20
471.938000
 30
0.0
 10
262.502310
 20
472.590160
 30
0.0
 10
262.966250
 20
472.420500
 30
0.0
 10
262.835810
 20
471.698090
 30
0.0
 10
262.108000
 20
470.692000
 30
0.0
 10
242.876450
 20
457.575280
 30
0.0
 10
228.113880
 20
460.405250
 30
0.0
 10
214.128860
 20
472.245350
 30
0.0
 10
197.230000
 20
486.159000
 30
0.0
 10
196.358220
 20
487.097690
 30
0.0
 10
195.893500
 20
488.212250
 30
0.0
 10
196.364030
 20
488.691940
 30
0.0
 10
198.298000
 20
487.726000
 30
0.0
  0
LWPOLYLINE
  5
101
100
AcDbEntity
  8
ink_ext_XXXXXX
 62
7
100
AcDbPolyline
 90
269
 70
0
 10
415.301000
 20
248.464000
 30
0.0
 10
416.526060
 20
247.908340
 30
0.0
 10
419.529750
 20
246.736750
 30
0.0
 10
423.304810
 20
245.692280
 30
0.0
 10
426.844000
 20
245.518000
 30
0.0
 10
422.175050
 20
238.752660
 30
0.0
 10
415.441620
 20
233.342000
 30
0.0
 10
409.388640
 20
229.753100
 30
0.0
 10
406.761000
 20
228.453000
 30
0.0
 10
408.263740
 20
227.812940
 30
0.0
 10
411.853630
 20
226.453250
 30
0.0
 10
416.153200
 20
225.214690
 30
0.0
 10
419.785000
 20
224.938000
 30
0.0
 10
415.868830
 20
218.559170
 30
0.0
 10
410.719380
 20
213.588370
 30
0.0
 10
406.236490
 20
210.360390
 30
0.0
 10
404.320000
 20
209.210000
 30
0.0
 10
405.139120
 20
208.613770
 30
0.0
 10
407.191250
 20
207.341870
 30
0.0
 10
409.868500
 20
206.169540
 30
0.0
 10
412.563000
 20
205.872000
 30
0.0
 10
408.924270
 20
202.985970
 30
0.0
 10
402.120630
 20
199.320500
 30
0.0
 10
394.223670
 20
195.970030
 30
0.0
 10
387.305000
 20
194.029000
 30
0.0
 10
388.396420
 20
193.438050
 30
0.0
 10
390.937130
 20
192.105620
 30
0.0
 10
393.826770
 20
190.692390
 30
0.0
 10
395.965000
 20
189.859000
 30
0.0
 10
389.396340
 20
187.212920
 30
0.0
 10
382.286000
 20
185.542120
 30
0.0
 10
375.556660
 20
184.946260
 30
0.0
 10
370.131000
 20
185.525000
 30
0.0
 10
370.794880
 20
184.242300
 30
0.0
 10
371.843500
 20
182.651620
 30
0.0
 10
373.014370
 20
181.175890
 30
0.0
 10
374.045000
 20
180.238000
 30
0.0
 10
366.453980
 20
181.252200
 30
0.0
 10
358.865120
 20
183.934870
 30
0.0
 10
353.028450
 20
186.704350
 30
0.0
 10
350.694000
 20
187.979000
 30
0.0
 10
350.913140
 20
187.107190
 30
0.0
 10
351.458620
 20
185.078500
 30
0.0
 10
352.162540
 20
182.773060
 30
0.0
 10
352.857000
 20
181.071000
 30
0.0
 10
349.300970
 20
181.967450
 30
0.0
 10
344.202750
 20
184.319370
 30
0.0
 10
337.979150
 20
188.302360
 30
0.0
 10
331.047000
 20
194.092000
 30
0.0
 10
334.890280
 20
196.156230
 30
0.0
 10
338.731500
 20
198.228620
 30
0.0
 10
342.598220
 20
200.302700
 30
0.0
 10
346.518000
 20
202.372000
 30
0.0
 10
350.799470
 20
199.658560
 30
0.0
 10
357.635250
 20
196.206750
 30
0.0
 10
366.431910
 20
192.805560
 30
0.0
 10
376.596000
 20
190.244000
 30
0.0
 10
376.923750
 20
190.354250
 30
0.0
 10
377.251500
 20
190.464500
 30
0.0
 10
377.579250
 20
190.574750
 30
0.0
 10
377.907000
 20
190.685000
 30
0.0
 10
368.189200
 20
193.405230
 30
0.0
 10
359.996630
 20
197.233870
 30
0.0
 10
353.736230
 20
201.147080
 30
0.0
 10
349.815000
 20
204.121000
 30
0.0
 10
353.384670
 20
206.105950
 30
0.0
 10
356.864620
 20
208.125870
 30
0.0
 10
360.256270
 20
210.175610
 30
0.0
 10
363.561000
 20
212.250000
 30
0.0
 10
369.134830
 20
209.516580
 30
0.0
 10
378.289620
 20
206.134870
 30
0.0
 10
389.273860
 20
203.880980
 30
0.0
 10
400.336000
 20
204.531000
 30
0.0
 10
400.401000
 20
204.630250
 30
0.0
 10
400.466000
 20
204.729500
 30
0.0
 10
400.531000
 20
204.828750
 30
0.0
 10
400.596000
 20
204.928000
 30
0.0
 10
390.517140
 20
204.908160
 30
0.0
 10
380.154880
 20
207.689750
 30
0.0
 10
371.445420
 20
211.367220
 30
0.0
 10
366.325000
 20
214.035000
 30
0.0
 10
369.388660
 20
216.087720
 30
0.0
 10
372.367750
 20
218.150750
 30
0.0
 10
375.263970
 20
220.219410
 30
0.0
 10
378.079000
 20
222.289000
 30
0.0
 10
382.725390
 20
220.364030
 30
0.0
 10
390.321630
 20
218.224000
 30
0.0
 10
399.192300
 20
217.381470
 30
0.0
 10
407.662000
 20
219.349000
 30
0.0
 10
407.585250
 20
219.466500
 30
0.0
 10
407.508500
 20
219.584000
 30
0.0
 10
407.431750
 20
219.701500
 30
0.0
 10
407.355000
 20
219.819000
 30
0.0
 10
399.526050
 20
218.233140
 30
0.0
 10
391.398120
 20
219.544620
 30
0.0
 10
384.522140
 20
222.057040
 30
0.0
 10
380.449000
 20
224.074000
 30
0.0
 10
383.578170
 20
226.499530
 30
0.0
 10
386.592120
 20
228.907250
 30
0.0
 10
389.493010
 20
231.290600
 30
0.0
 10
392.283000
 20
233.643000
 30
0.0
 10
395.504500
 20
233.422550
 30
0.0
 10
400.683500
 20
233.669620
 30
0.0
 10
407.018250
 20
234.995390
 30
0.0
 10
413.707000
 20
238.011000
 30
0.0
 10
413.793000
 20
238.137250
 30
0.0
 10
413.879000
 20
238.263500
 30
0.0
 10
413.965000
 20
238.389750
 30
0.0
 10
414.051000
 20
238.516000
 30
0.0
 10
407.920360
 20
235.838110
 30
0.0
 10
402.130120
 20
234.860370
 30
0.0
 10
397.402830
 20
234.959450
 30
0.0
 10
394.461000
 20
235.512000
 30
0.0
 10
399.638380
 20
240.106840
 30
0.0
 10
404.354500
 20
244.448000
 30
0.0
 10
408.610130
 20
248.471160
 30
0.0
 10
412.406000
 20
252.112000
 30
0.0
 10
415.227580
 20
254.899500
 30
0.0
 10
418.080370
 20
257.780750
 30
0.0
 10
420.641980
 20
260.321130
 30
0.0
 10
422.590000
 20
262.086000
 30
0.0
 10
422.027500
 20
261.796750
 30
0.0
 10
421.465000
 20
261.507500
 30
0.0
 10
420.902500
 20
261.218250
 30
0.0
 10
420.340000
 20
260.929000
 30
0.0
 10
418.559510
 20
259.366370
 30
0.0
 10
416.450620
 20
257.332000
 30
0.0
 10
414.058420
 20
254.960880
 30
0.0
 10
411.428000
 20
252.388000
 30
0.0
 10
407.694880
 20
248.828450
 30
0.0
 10
403.499000
 20
244.922870
 30
0.0
 10
398.842630
 20
240.730610
 30
0.0
 10
393.728000
 20
236.311000
 30
0.0
 10
393.253950
 20
239.637560
 30
0.0
 10
393.444870
 20
244.848500
 30
0.0
 10
395.104860
 20
250.933190
 30
0.0
 10
399.038000
 20
256.881000
 30
0.0
 10
399.320500
 20
257.272250
 30
0.0
 10
399.603000
 20
257.663500
 30
0.0
 10
399.885500
 20
258.054750
 30
0.0
 10
400.168000
 20
258.446000
 30
0.0
 10
399.800750
 20
258.079250
 30
0.0
 10
399.433500
 20
257.712500
 30
0.0
 10
399.066250
 20
257.345750
 30
0.0
 10
398.699000
 20
256.979000
 30
0.0
 10
394.329450
 20
250.541330
 30
0.0
 10
392.176620
 20
243.880620
 30
0.0
 10
391.495480
 20
238.144110
 30
0.0
 10
391.541000
 20
234.479000
 30
0.0
 10
388.743240
 20
232.191550
 30
0.0
 10
385.832880
 20
229.875120
 30
0.0
 10
382.808330
 20
227.535640
 30
0.0
 10
379.668000
 20
225.179000
 30
0.0
 10
378.524750
 20
229.729280
 30
0.0
 10
377.500000
 20
237.123000
 30
0.0
 10
377.728500
 20
246.013720
 30
0.0
 10
380.345000
 20
255.055000
 30
0.0
 10
380.304750
 20
255.415250
 30
0.0
 10
380.264500
 20
255.775500
 30
0.0
 10
380.224250
 20
256.135750
 30
0.0
 10
380.184000
 20
256.496000
 30
0.0
 10
380.068000
 20
256.160000
 30
0.0
 10
379.952000
 20
255.824000
 30
0.0
 10
379.836000
 20
255.488000
 30
0.0
 10
379.720000
 20
255.152000
 30
0.0
 10
376.701810
 20
245.472260
 30
0.0
 10
375.938500
 20
235.951620
 30
0.0
 10
376.438940
 20
228.091670
 30
0.0
 10
377.212000
 20
223.394000
 30
0.0
 10
374.375420
 20
221.379010
 30
0.0
 10
371.458130
 20
219.367870
 30
0.0
 10
368.458520
 20
217.363290
 30
0.0
 10
365.375000
 20
215.368000
 30
0.0
 10
363.898410
 20
221.019250
 30
0.0
 10
362.460250
 20
230.008750
 30
0.0
 10
362.454250
 20
240.339620
 30
0.0
 10
365.274030
 20
250.015000
 30
0.0
 10
365.450030
 20
250.383250
 30
0.0
 10
365.626030
 20
250.751500
 30
0.0
 10
365.802030
 20
251.119750
 30
0.0
 10
365.978030
 20
251.488000
 30
0.0
 10
365.735530
 20
251.168750
 30
0.0
 10
365.493030
 20
250.849500
 30
0.0
 10
365.250530
 20
250.530250
 30
0.0
 10
365.008030
 20
250.211000
 30
0.0
 10
361.570690
 20
239.723750
 30
0.0
 10
360.747280
 20
228.651500
 30
0.0
 10
361.405500
 20
219.188000
 30
0.0
 10
362.413030
 20
213.527000
 30
0.0
 10
359.060690
 20
211.501060
 30
0.0
 10
355.621530
 20
209.499500
 30
0.0
 10
352.093120
 20
207.527940
 30
0.0
 10
348.473030
 20
205.592000
 30
0.0
 10
347.097590
 20
211.027610
 30
0.0
 10
345.409030
 20
220.707370
 30
0.0
 10
344.827470
 20
232.084200
 30
0.0
 10
346.773030
 20
242.611000
 30
0.0
 10
346.839030
 20
242.853500
 30
0.0
 10
346.905030
 20
243.096000
 30
0.0
 10
346.971030
 20
243.338500
 30
0.0
 10
347.037030
 20
243.581000
 30
0.0
 10
346.787280
 20
243.356750
 30
0.0
 10
346.537530
 20
243.132500
 30
0.0
 10
346.287780
 20
242.908250
 30
0.0
 10
346.038030
 20
242.684000
 30
0.0
 10
343.525030
 20
231.656200
 30
0.0
 10
343.131530
 20
219.777620
 30
0.0
 10
343.961280
 20
209.652730
 30
0.0
 10
345.118030
 20
203.886000
 30
0.0
 10
340.964050
 20
201.862700
 30
0.0
 10
336.697660
 20
199.901370
 30
0.0
 10
332.324950
 20
198.004350
 30
0.0
 10
327.852030
 20
196.174000
 30
0.0
 10
326.358300
 20
203.922110
 30
0.0
 10
325.764660
 20
211.957370
 30
0.0
 10
325.867960
 20
219.030200
 30
0.0
 10
326.465030
 20
223.891000
 30
0.0
 10
327.496140
 20
222.729340
 30
0.0
 10
329.059660
 20
221.068750
 30
0.0
 10
330.487610
 20
219.580280
 30
0.0
 10
331.112030
 20
218.935000
 30
0.0
 10
330.974590
 20
221.180330
 30
0.0
 10
331.056530
 20
226.683370
 30
0.0
 10
332.099220
 20
233.594730
 30
0.0
 10
334.844030
 20
240.065000
 30
0.0
 10
335.180700
 20
238.923140
 30
0.0
 10
336.008910
 20
237.362120
 30
0.0
 10
336.986170
 20
235.874800
 30
0.0
 10
337.770030
 20
234.954000
 30
0.0
 10
339.856250
 20
239.493010
 30
0.0
 10
343.317030
 20
245.121870
 30
0.0
 10
347.796310
 20
250.851800
 30
0.0
 10
352.938030
 20
255.694000
 30
0.0
 10
352.471230
 20
253.624580
 30
0.0
 10
352.014660
 20
250.543120
 30
0.0
 10
351.667770
 20
247.744610
 30
0.0
 10
351.530030
 20
246.524000
 30
0.0
 10
356.528550
 20
251.727480
 30
0.0
 10
363.194410
 20
257.680120
 30
0.0
 10
369.563080
 20
262.731450
 30
0.0
 10
373.670030
 20
265.231000
 30
0.0
 10
372.566480
 20
263.098410
 30
0.0
 10
372.148160
 20
260.822750
 30
0.0
 10
372.116270
 20
259.011720
 30
0.0
 10
372.172030
 20
258.273000
 30
0.0
 10
374.007200
 20
259.548050
 30
0.0
 10
378.714410
 20
262.434370
 30
0.0
 10
385.096170
 20
265.523760
 30
0.0
 10
391.955030
 20
267.408000
 30
0.0
 10
390.500760
 20
264.709160
 30
0.0
 10
389.611160
 20
261.509500
 30
0.0
 10
389.165740
 20
258.836340
 30
0.0
 10
389.044030
 20
257.717000
 30
0.0
 10
391.139900
 20
259.342030
 30
0.0
 10
396.448030
 20
262.997500
 30
0.0
 10
403.499150
 20
266.853970
 30
0.0
 10
410.824030
 20
269.082000
 30
0.0
 10
409.289360
 20
266.334620
 30
0.0
 10
408.406160
 20
263.270000
 30
0.0
 10
408.002390
 20
260.778370
 30
0.0
 10
407.906030
 20
259.750000
 30
0.0
 10
410.189590
 20
261.015580
 30
0.0
 10
415.999280
 20
263.825120
 30
0.0
 10
423.773590
 20
266.697860
 30
0.0
 10
431.951030
 20
268.153000
 30
0.0
 10
428.035330
 20
260.193390
 30
0.0
 10
422.457910
 20
253.967880
 30
0.0
 10
417.464550
 20
249.912670
 30
0.0
 10
415.301030
 20
248.464000
 30
0.0
  0
LWPOLYLINE
  5
102
100
AcDbEntity
  8
ink_ext_XXXXXX
 62
7
100
AcDbPolyline
 90
29
 70
0
 10
251.789030
 20
348.948000
 30
0.0
 10
201.055580
 20
347.841330
 30
0.0
 10
182.423150
 20
373.369880
 30
0.0
 10
173.372170
 20
409.719230
 30
0.0
 10
151.383030
 20
441.075000
 30
0.0
 10
161.436970
 20
441.653200
 30
0.0
 10
171.103530
 20
441.049130
 30
0.0
 10
179.933840
 20
438.785490
 30
0.0
 10
187.479030
 20
434.385000
 30
0.0
 10
189.458620
 20
433.271170
 30
0.0
 10
190.432280
 20
433.601370
 30
0.0
 10
190.264810
 20
434.787890
 30
0.0
 10
188.821030
 20
436.243000
 30
0.0
 10
159.796910
 20
444.869620
 30
0.0
 10
134.023280
 20
442.141250
 30
0.0
 10
118.945030
 20
440.468500
 30
0.0
 10
122.007030
 20
452.262000
 30
0.0
 10
154.977450
 20
466.059590
 30
0.0
 10
198.338660
 20
447.127000
 30
0.0
 10
240.855550
 20
416.765160
 30
0.0
 10
271.293030
 20
396.275000
 30
0.0
 10
286.451950
 20
390.823030
 30
0.0
 10
294.305410
 20
387.438250
 30
0.0
 10
296.920670
 20
381.626100
 30
0.0
 10
296.365030
 20
368.892000
 30
0.0
 10
294.775980
 20
364.140280
 30
0.0
 10
288.868900
 20
360.120750
 30
0.0
 10
275.565890
 20
355.500850
 30
0.0
 10
251.789000
 20
348.948000
 30
0.0
  0
LWPOLYLINE
  5
103
100
AcDbEntity
  8
ink_ext_XXXXXX
 62
7
100
AcDbPolyline
 90
13
 70
0
 10
155.846000
 20
372.209000
 30
0.0
 10
133.861590
 20
390.683550
 30
0.0
 10
122.355560
 20
402.378380
 30
0.0
 10
129.345010
 20
411.029520
 30
0.0
 10
162.847000
 20
420.373000
 30
0.0
 10
172.469440
 20
395.949840
 30
0.0
 10
179.842250
 20
371.159750
 30
0.0
 10
190.881440
 20
350.672780
 30
0.0
 10
211.503000
 20
339.159000
 30
0.0
 10
191.919830
 20
336.784580
 30
0.0
 10
180.050880
 20
343.285380
 30
0.0
 10
169.993740
 20
355.985490
 30
0.0
 10
155.846000
 20
372.209000
 30
0.0
  0
LWPOLYLINE
  5
104
100
AcDbEntity
  8
ink_ext_XXXXXX
 62
7
100
AcDbPolyline
 90
33
 70
0
 10
165.758000
 20
507.477000
 30
0.0
 10
194.761090
 20
521.026750
 30
0.0
 10
218.993250
 20
543.958250
 30
0.0
 10
239.364780
 20
557.785870
 30
0.0
 10
256.786000
 20
544.024000
 30
0.0
 10
254.686700
 20
540.775330
 30
0.0
 10
252.554130
 20
537.011130
 30
0.0
 10
250.381240
 20
532.704110
 30
0.0
 10
248.161000
 20
527.827000
 30
0.0
 10
248.081250
 20
527.886500
 30
0.0
 10
248.001500
 20
527.946000
 30
0.0
 10
247.921750
 20
528.005500
 30
0.0
 10
247.842000
 20
528.065000
 30
0.0
 10
225.886360
 20
527.960010
 30
0.0
 10
212.908130
 20
523.174370
 30
0.0
 10
204.803580
 20
514.303290
 30
0.0
 10
197.469000
 20
501.942000
 30
0.0
 10
194.954950
 20
502.997340
 30
0.0
 10
192.401630
 20
503.661750
 30
0.0
 10
189.768240
 20
503.866030
 30
0.0
 10
187.014000
 20
503.541000
 30
0.0
 10
178.085490
 20
494.505050
 30
0.0
 10
186.499130
 20
479.469380
 30
0.0
 10
199.511210
 20
462.347020
 30
0.0
 10
204.378000
 20
447.051000
 30
0.0
 10
189.139200
 20
456.385410
 30
0.0
 10
173.888880
 20
464.093250
 30
0.0
 10
159.020110
 20
469.417970
 30
0.0
 10
144.926000
 20
471.603000
 30
0.0
 10
132.838250
 20
479.100700
 30
0.0
 10
130.880750
 20
490.300880
 30
0.0
 10
141.153870
 20
501.120610
 30
0.0
 10
165.758000
 20
507.477000
 30
0.0
  0
LWPOLYLINE
  5
105
100
AcDbEntity
  8
ink_ext_XXXXXX
 62
7
100
AcDbPolyline
 90
37
 70
0
 10
277.845000
 20
511.481000
 30
0.0
 10
279.763020
 20
509.344950
 30
0.0
 10
281.924880
 20
506.523130
 30
0.0
 10
283.703300
 20
502.535990
 30
0.0
 10
284.471000
 20
496.904000
 30
0.0
 10
282.689280
 20
495.430970
 30
0.0
 10
280.694750
 20
493.825750
 30
0.0
 10
278.401340
 20
492.148910
 30
0.0
 10
275.723000
 20
490.461000
 30
0.0
 10
277.067250
 20
499.032310
 30
0.0
 10
272.671750
 20
505.567000
 30
0.0
 10
262.831630
 20
506.142940
 30
0.0
 10
247.842000
 20
496.838000
 30
0.0
 10
246.605580
 20
495.478310
 30
0.0
 10
245.774630
 20
494.089750
 30
0.0
 10
246.208360
 20
493.627810
 30
0.0
 10
248.766000
 20
495.048000
 30
0.0
 10
261.335250
 20
500.981250
 30
0.0
 10
268.496250
 20
499.669500
 30
0.0
 10
270.335630
 20
493.947750
 30
0.0
 10
266.940000
 20
486.651000
 30
0.0
 10
262.064550
 20
485.353920
 30
0.0
 10
256.354630
 20
484.342120
 30
0.0
 10
249.711890
 20
483.684510
 30
0.0
 10
242.038000
 20
483.450000
 30
0.0
 10
237.226750
 20
483.642520
 30
0.0
 10
232.783000
 20
484.189130
 30
0.0
 10
228.677500
 20
485.043430
 30
0.0
 10
224.881000
 20
486.159000
 30
0.0
 10
225.494000
 20
486.159000
 30
0.0
 10
226.107000
 20
486.159000
 30
0.0
 10
226.720000
 20
486.159000
 30
0.0
 10
227.333000
 20
486.159000
 30
0.0
 10
216.928780
 20
497.956530
 30
0.0
 10
231.098500
 20
508.624000
 30
0.0
 10
256.013470
 20
514.389470
 30
0.0
 10
277.845000
 20
511.481000
 30
0.0
  0
LWPOLYLINE
  5
106
100
AcDbEntity
  8
ink_ext_XXXXXX
 62
7
100
AcDbPolyline
 90
25
 70
0
 10
241.341000
 20
478.497000
 30
0.0
 10
258.787080
 20
479.951080
 30
0.0
 10
270.795380
 20
483.522870
 30
0.0
 10
278.777490
 20
488.026730
 30
0.0
 10
284.145000
 20
492.277000
 30
0.0
 10
283.857690
 20
490.476410
 30
0.0
 10
283.471000
 20
488.559750
 30
0.0
 10
282.975560
 20
486.518970
 30
0.0
 10
282.362000
 20
484.346000
 30
0.0
 10
273.278050
 20
470.667370
 30
0.0
 10
257.545630
 20
454.747000
 30
0.0
 10
241.891390
 20
439.209870
 30
0.0
 10
233.042000
 20
426.681000
 30
0.0
 10
227.244080
 20
430.997510
 30
0.0
 10
221.265130
 20
435.368870
 30
0.0
 10
215.134110
 20
439.739300
 30
0.0
 10
208.880000
 20
444.053000
 30
0.0
 10
206.189670
 20
458.597230
 30
0.0
 10
194.272380
 20
474.693130
 30
0.0
 10
184.946900
 20
489.071710
 30
0.0
 10
190.032000
 20
498.464000
 30
0.0
 10
197.519160
 20
496.731280
 30
0.0
 10
207.380250
 20
489.713500
 30
0.0
 10
221.394470
 20
482.079220
 30
0.0
 10
241.341000
 20
478.497000
 30
0.0
  0
LWPOLYLINE
  5
107
100
AcDbEntity
  8
ink_ext_XXXXXX
 62
7
100
AcDbPolyline
 90
97
 70
0
 10
320.047000
 20
536.075000
 30
0.0
 10
345.613840
 20
532.708530
 30
0.0
 10
360.559750
 20
524.466500
 30
0.0
 10
364.187780
 20
511.000720
 30
0.0
 10
355.801000
 20
491.963000
 30
0.0
 10
344.947060
 20
470.047810
 30
0.0
 10
336.422250
 20
446.252000
 30
0.0
 10
327.096060
 20
424.723440
 30
0.0
 10
313.838000
 20
409.610000
 30
0.0
 10
315.989360
 20
420.575530
 30
0.0
 10
314.366630
 20
430.376500
 30
0.0
 10
310.525580
 20
439.062220
 30
0.0
 10
306.022000
 20
446.682000
 30
0.0
 10
306.394500
 20
446.220500
 30
0.0
 10
306.767000
 20
445.759000
 30
0.0
 10
307.139500
 20
445.297500
 30
0.0
 10
307.512000
 20
444.836000
 30
0.0
 10
319.363800
 20
460.279590
 30
0.0
 10
334.771630
 20
479.950750
 30
0.0
 10
343.707890
 20
500.076030
 30
0.0
 10
336.145000
 20
516.882000
 30
0.0
 10
332.787700
 20
519.026250
 30
0.0
 10
331.578130
 20
519.233250
 30
0.0
 10
331.877740
 20
518.264620
 30
0.0
 10
333.048000
 20
516.882000
 30
0.0
 10
339.315840
 20
499.719050
 30
0.0
 10
330.453750
 20
481.759880
 30
0.0
 10
315.554530
 20
464.802520
 30
0.0
 10
303.711000
 20
450.645000
 30
0.0
 10
302.474870
 20
453.138720
 30
0.0
 10
301.613000
 20
455.481500
 30
0.0
 10
301.221370
 20
457.676530
 30
0.0
 10
301.396000
 20
459.727000
 30
0.0
 10
301.394300
 20
459.725700
 30
0.0
 10
301.392600
 20
459.724500
 30
0.0
 10
301.390800
 20
459.723300
 30
0.0
 10
301.389100
 20
459.722100
 30
0.0
 10
301.631300
 20
460.168860
 30
0.0
 10
301.867980
 20
460.621720
 30
0.0
 10
302.097710
 20
461.081520
 30
0.0
 10
302.319100
 20
461.549100
 30
0.0
 10
309.340630
 20
479.501940
 30
0.0
 10
313.033100
 20
497.021850
 30
0.0
 10
311.021820
 20
511.141630
 30
0.0
 10
300.932100
 20
518.894100
 30
0.0
 10
299.102680
 20
519.030150
 30
0.0
 10
297.674980
 20
518.658720
 30
0.0
 10
297.353340
 20
517.901990
 30
0.0
 10
298.842100
 20
516.882100
 30
0.0
 10
307.886080
 20
508.375080
 30
0.0
 10
308.618480
 20
495.708470
 30
0.0
 10
303.843430
 20
480.240430
 30
0.0
 10
296.365000
 20
463.329000
 30
0.0
 10
285.831910
 20
450.671120
 30
0.0
 10
271.125250
 20
442.044500
 30
0.0
 10
255.421470
 20
433.229620
 30
0.0
 10
241.897000
 20
420.007000
 30
0.0
 10
240.246970
 20
421.253060
 30
0.0
 10
238.573500
 20
422.516750
 30
0.0
 10
236.877530
 20
423.796560
 30
0.0
 10
235.160000
 20
425.091000
 30
0.0
 10
243.654500
 20
436.896690
 30
0.0
 10
259.368500
 20
451.339000
 30
0.0
 10
275.842250
 20
466.705310
 30
0.0
 10
286.616000
 20
481.283000
 30
0.0
 10
289.900110
 20
498.028120
 30
0.0
 10
286.078820
 20
507.810470
 30
0.0
 10
281.790620
 20
513.994330
 30
0.0
 10
283.674000
 20
519.944000
 30
0.0
 10
293.325520
 20
524.021200
 30
0.0
 10
301.067630
 20
523.217880
 30
0.0
 10
308.451420
 20
520.553610
 30
0.0
 10
317.028000
 20
519.048000
 30
0.0
 10
318.437610
 20
519.388370
 30
0.0
 10
318.968130
 20
520.099250
 30
0.0
 10
318.427080
 20
520.762500
 30
0.0
 10
316.622000
 20
520.960000
 30
0.0
 10
307.106640
 20
523.107160
 30
0.0
 10
298.037630
 20
527.173750
 30
0.0
 10
286.862800
 20
527.385720
 30
0.0
 10
271.030000
 20
517.969000
 30
0.0
 10
247.399520
 20
516.868000
 30
0.0
 10
225.215130
 20
509.071750
 30
0.0
 10
214.022170
 20
497.906870
 30
0.0
 10
223.366000
 20
486.700000
 30
0.0
 10
216.927380
 20
489.602520
 30
0.0
 10
211.322750
 20
492.919130
 30
0.0
 10
206.347000
 20
496.310180
 30
0.0
 10
201.795000
 20
499.436000
 30
0.0
 10
208.872780
 20
511.676950
 30
0.0
 10
216.683500
 20
520.605620
 30
0.0
 10
229.354970
 20
525.516730
 30
0.0
 10
251.015000
 20
525.705000
 30
0.0
 10
266.186920
 20
546.197610
 30
0.0
 10
279.214130
 20
548.013620
 30
0.0
 10
295.399770
 20
541.267830
 30
0.0
 10
320.047000
 20
536.075000
 30
0.0
  0
LWPOLYLINE
  5
108
100
AcDbEntity
  8
ink_ext_XXXXXX
 62
7
100
AcDbPolyline
 90
17
 70
0
 10
291.778000
 20
393.013000
 30
0.0
 10
287.848920
 20
394.185390
 30
0.0
 10
283.160380
 20
395.624130
 30
0.0
 10
277.659390
 20
397.510050
 30
0.0
 10
271.293000
 20
400.024000
 30
0.0
 10
266.093640
 20
402.753480
 30
0.0
 10
259.739380
 20
406.889120
 30
0.0
 10
252.366420
 20
412.170200
 30
0.0
 10
244.111000
 20
418.336000
 30
0.0
 10
256.760440
 20
430.344120
 30
0.0
 10
272.009000
 20
438.629250
 30
0.0
 10
287.007810
 20
446.182000
 30
0.0
 10
298.908000
 20
455.993000
 30
0.0
 10
302.490670
 20
445.522660
 30
0.0
 10
307.914130
 20
432.321000
 30
0.0
 10
307.052020
 20
415.210340
 30
0.0
 10
291.778000
 20
393.013000
 30
0.0
  0
LWPOLYLINE
  5
109
100
AcDbEntity
  8
ink_ext_XXXXXX
 62
7
100
AcDbPolyline
 90
29
 70
0
 10
386.885000
 20
430.381000
 30
0.0
 10
388.724250
 20
419.068700
 30
0.0
 10
380.452000
 20
409.361880
 30
0.0
 10
366.515750
 20
399.600860
 30
0.0
 10
351.363000
 20
388.126000
 30
0.0
 10
339.503170
 20
376.847390
 30
0.0
 10
329.773630
 20
369.426130
 30
0.0
 10
318.485020
 20
367.162050
 30
0.0
 10
301.948000
 20
371.355000
 30
0.0
 10
302.313920
 20
378.557640
 30
0.0
 10
302.016380
 20
383.742880
 30
0.0
 10
300.933400
 20
387.346170
 30
0.0
 10
298.943000
 20
389.803000
 30
0.0
 10
298.947800
 20
389.801000
 30
0.0
 10
298.952600
 20
389.799000
 30
0.0
 10
298.957400
 20
389.797000
 30
0.0
 10
298.962100
 20
389.795000
 30
0.0
 10
303.364910
 20
394.082250
 30
0.0
 10
307.012100
 20
398.236750
 30
0.0
 10
309.957290
 20
402.261130
 30
0.0
 10
312.254100
 20
406.158000
 30
0.0
 10
325.455520
 20
414.091800
 30
0.0
 10
335.198220
 20
427.631370
 30
0.0
 10
342.886860
 20
444.760270
 30
0.0
 10
349.926100
 20
463.462000
 30
0.0
 10
359.624940
 20
461.753170
 30
0.0
 10
368.560100
 20
455.038380
 30
0.0
 10
377.418010
 20
444.265140
 30
0.0
 10
386.885100
 20
430.381000
 30
0.0
  0
LWPOLYLINE
  5
10a
100
AcDbEntity
  8
ink_ext_XXXXXX
 62
7
100
AcDbPolyline
 90
209
 70
0
 10
335.902100
 20
353.349000
 30
0.0
 10
341.093070
 20
362.489170
 30
0.0
 10
348.036600
 20
368.898120
 30
0.0
 10
355.837380
 20
373.609260
 30
0.0
 10
363.600100
 20
377.656000
 30
0.0
 10
363.060440
 20
375.263770
 30
0.0
 10
363.059140
 20
372.027130
 30
0.0
 10
363.518300
 20
368.469670
 30
0.0
 10
364.360140
 20
365.115000
 30
0.0
 10
368.810250
 20
369.981770
 30
0.0
 10
374.835270
 20
373.938880
 30
0.0
 10
381.371970
 20
376.938050
 30
0.0
 10
387.357140
 20
378.931000
 30
0.0
 10
386.896140
 20
377.584440
 30
0.0
 10
385.796140
 20
374.316750
 30
0.0
 10
384.481640
 20
370.285940
 30
0.0
 10
383.377140
 20
366.650000
 30
0.0
 10
389.525150
 20
371.300410
 30
0.0
 10
395.439260
 20
374.034000
 30
0.0
 10
401.287560
 20
375.776840
 30
0.0
 10
407.238140
 20
377.455000
 30
0.0
 10
406.249190
 20
376.498640
 30
0.0
 10
403.754510
 20
374.048380
 30
0.0
 10
400.462400
 20
370.732430
 30
0.0
 10
397.081140
 20
367.179000
 30
0.0
 10
402.829870
 20
366.137220
 30
0.0
 10
410.740010
 20
366.918500
 30
0.0
 10
420.775470
 20
369.310030
 30
0.0
 10
432.900140
 20
373.099000
 30
0.0
 10
427.341390
 20
366.520000
 30
0.0
 10
419.523640
 20
360.563500
 30
0.0
 10
412.098890
 20
356.257750
 30
0.0
 10
407.719140
 20
354.631000
 30
0.0
 10
408.721800
 20
353.125860
 30
0.0
 10
410.437140
 20
351.173630
 30
0.0
 10
413.767990
 20
349.410580
 30
0.0
 10
419.617140
 20
348.473000
 30
0.0
 10
414.104470
 20
345.219030
 30
0.0
 10
407.843020
 20
343.912250
 30
0.0
 10
402.063630
 20
343.739840
 30
0.0
 10
397.997140
 20
343.889000
 30
0.0
 10
399.037940
 20
341.546170
 30
0.0
 10
400.946020
 20
339.070880
 30
0.0
 10
404.561660
 20
336.380900
 30
0.0
 10
410.725140
 20
333.394000
 30
0.0
 10
402.301630
 20
330.300020
 30
0.0
 10
393.590020
 20
328.910880
 30
0.0
 10
385.756470
 20
328.677300
 30
0.0
 10
379.967140
 20
329.050000
 30
0.0
 10
380.528830
 20
327.017990
 30
0.0
 10
381.591890
 20
324.115880
 30
0.0
 10
383.692580
 20
320.360080
 30
0.0
 10
387.367140
 20
315.767000
 30
0.0
 10
378.084980
 20
312.542310
 30
0.0
 10
368.178640
 20
312.516750
 30
0.0
 10
360.294300
 20
313.850560
 30
0.0
 10
357.078140
 20
314.704000
 30
0.0
 10
357.918140
 20
311.929750
 30
0.0
 10
358.758140
 20
309.155500
 30
0.0
 10
359.598140
 20
306.381250
 30
0.0
 10
360.438140
 20
303.607000
 30
0.0
 10
343.248300
 20
303.026530
 30
0.0
 10
328.770640
 20
307.344500
 30
0.0
 10
318.755480
 20
312.759720
 30
0.0
 10
314.953140
 20
315.471000
 30
0.0
 10
317.914000
 20
318.315840
 30
0.0
 10
321.228020
 20
321.009000
 30
0.0
 10
324.858350
 20
323.558900
 30
0.0
 10
328.768140
 20
325.974000
 30
0.0
 10
333.047890
 20
322.632250
 30
0.0
 10
337.327640
 20
319.290500
 30
0.0
 10
341.607390
 20
315.948750
 30
0.0
 10
345.887140
 20
312.607000
 30
0.0
 10
347.467640
 20
311.594000
 30
0.0
 10
349.048140
 20
310.581000
 30
0.0
 10
350.628640
 20
309.568000
 30
0.0
 10
352.209140
 20
308.555000
 30
0.0
 10
351.776890
 20
309.172750
 30
0.0
 10
351.344640
 20
309.790500
 30
0.0
 10
350.912390
 20
310.408250
 30
0.0
 10
350.480140
 20
311.026000
 30
0.0
 10
345.901390
 20
315.236250
 30
0.0
 10
341.322640
 20
319.446500
 30
0.0
 10
336.743890
 20
323.656750
 30
0.0
 10
332.165140
 20
327.867000
 30
0.0
 10
336.472580
 20
330.052890
 30
0.0
 10
340.957390
 20
332.130130
 30
0.0
 10
345.583580
 20
334.107800
 30
0.0
 10
350.315140
 20
335.995000
 30
0.0
 10
355.644390
 20
332.402750
 30
0.0
 10
360.973640
 20
328.810500
 30
0.0
 10
366.302890
 20
325.218250
 30
0.0
 10
371.632140
 20
321.626000
 30
0.0
 10
372.455640
 20
321.521750
 30
0.0
 10
373.279140
 20
321.417500
 30
0.0
 10
374.102640
 20
321.313250
 30
0.0
 10
374.926140
 20
321.209000
 30
0.0
 10
374.332390
 20
321.772750
 30
0.0
 10
373.738640
 20
322.336500
 30
0.0
 10
373.144890
 20
322.900250
 30
0.0
 10
372.551140
 20
323.464000
 30
0.0
 10
367.969640
 20
326.965750
 30
0.0
 10
363.388140
 20
330.467500
 30
0.0
 10
358.806640
 20
333.969250
 30
0.0
 10
354.225140
 20
337.471000
 30
0.0
 10
359.081450
 20
339.225910
 30
0.0
 10
363.941140
 20
340.914250
 30
0.0
 10
368.768580
 20
342.544470
 30
0.0
 10
373.528140
 20
344.125000
 30
0.0
 10
377.692390
 20
342.067750
 30
0.0
 10
381.856640
 20
340.010500
 30
0.0
 10
386.020890
 20
337.953250
 30
0.0
 10
390.185140
 20
335.896000
 30
0.0
 10
390.834140
 20
335.747000
 30
0.0
 10
391.483140
 20
335.598000
 30
0.0
 10
392.132140
 20
335.449000
 30
0.0
 10
392.781140
 20
335.300000
 30
0.0
 10
392.250890
 20
335.670750
 30
0.0
 10
391.720640
 20
336.041500
 30
0.0
 10
391.190390
 20
336.412250
 30
0.0
 10
390.660140
 20
336.783000
 30
0.0
 10
387.395890
 20
338.955750
 30
0.0
 10
384.131640
 20
341.128500
 30
0.0
 10
380.867390
 20
343.301250
 30
0.0
 10
377.603140
 20
345.474000
 30
0.0
 10
378.058090
 20
345.625020
 30
0.0
 10
378.512020
 20
345.775380
 30
0.0
 10
378.964250
 20
345.925550
 30
0.0
 10
379.414140
 20
346.076000
 30
0.0
 10
388.009060
 20
348.979390
 30
0.0
 10
395.541520
 20
351.711130
 30
0.0
 10
402.249530
 20
354.499300
 30
0.0
 10
408.371140
 20
357.572000
 30
0.0
 10
414.791900
 20
361.286840
 30
0.0
 10
417.816540
 20
363.305330
 30
0.0
 10
418.848980
 20
364.288650
 30
0.0
 10
419.293140
 20
364.898000
 30
0.0
 10
417.793640
 20
364.329250
 30
0.0
 10
416.294140
 20
363.760500
 30
0.0
 10
414.794640
 20
363.191750
 30
0.0
 10
413.295140
 20
362.623000
 30
0.0
 10
408.168480
 20
359.249690
 30
0.0
 10
400.079890
 20
355.967500
 30
0.0
 10
389.938170
 20
352.593060
 30
0.0
 10
378.652140
 20
348.943000
 30
0.0
 10
377.710860
 20
348.630940
 30
0.0
 10
376.762640
 20
348.318500
 30
0.0
 10
375.808420
 20
348.005310
 30
0.0
 10
374.849140
 20
347.691000
 30
0.0
 10
375.588890
 20
351.314250
 30
0.0
 10
376.328640
 20
354.937500
 30
0.0
 10
377.068390
 20
358.560750
 30
0.0
 10
377.808140
 20
362.184000
 30
0.0
 10
377.534390
 20
362.357500
 30
0.0
 10
377.260640
 20
362.531000
 30
0.0
 10
376.986890
 20
362.704500
 30
0.0
 10
376.713140
 20
362.878000
 30
0.0
 10
375.173140
 20
358.733250
 30
0.0
 10
373.633140
 20
354.588500
 30
0.0
 10
372.093140
 20
350.443750
 30
0.0
 10
370.553140
 20
346.299000
 30
0.0
 10
366.149420
 20
344.881090
 30
0.0
 10
361.691890
 20
343.432250
 30
0.0
 10
357.206980
 20
341.943280
 30
0.0
 10
352.721140
 20
340.405000
 30
0.0
 10
353.812890
 20
346.146000
 30
0.0
 10
354.904640
 20
351.887000
 30
0.0
 10
355.996390
 20
357.628000
 30
0.0
 10
357.088140
 20
363.369000
 30
0.0
 10
356.740890
 20
363.175250
 30
0.0
 10
356.393640
 20
362.981500
 30
0.0
 10
356.046390
 20
362.787750
 30
0.0
 10
355.699140
 20
362.594000
 30
0.0
 10
353.917890
 20
356.676000
 30
0.0
 10
352.136640
 20
350.758000
 30
0.0
 10
350.355390
 20
344.840000
 30
0.0
 10
348.574140
 20
338.922000
 30
0.0
 10
344.063120
 20
337.222740
 30
0.0
 10
339.637520
 20
335.442380
 30
0.0
 10
335.325720
 20
333.571080
 30
0.0
 10
331.156140
 20
331.599000
 30
0.0
 10
331.209500
 20
336.543050
 30
0.0
 10
331.265020
 20
341.934380
 30
0.0
 10
331.471850
 20
346.738270
 30
0.0
 10
331.979140
 20
349.920000
 30
0.0
 10
331.664640
 20
350.055500
 30
0.0
 10
331.350140
 20
350.191000
 30
0.0
 10
331.035640
 20
350.326500
 30
0.0
 10
330.721140
 20
350.462000
 30
0.0
 10
329.701130
 20
346.192520
 30
0.0
 10
328.738020
 20
340.234130
 30
0.0
 10
327.939720
 20
334.188170
 30
0.0
 10
327.414140
 20
329.656000
 30
0.0
 10
323.503940
 20
327.397220
 30
0.0
 10
319.836270
 20
324.999500
 30
0.0
 10
316.443280
 20
322.451780
 30
0.0
 10
313.357140
 20
319.743000
 30
0.0
 10
316.750640
 20
336.758140
 30
0.0
 10
322.197640
 20
349.915380
 30
0.0
 10
327.860640
 20
359.057670
 30
0.0
 10
331.902140
 20
364.028000
 30
0.0
 10
332.142250
 20
364.142610
 30
0.0
 10
332.380020
 20
364.260880
 30
0.0
 10
332.616090
 20
364.381960
 30
0.0
 10
332.851140
 20
364.505000
 30
0.0
 10
333.112420
 20
362.145520
 30
0.0
 10
333.670140
 20
358.761630
 30
0.0
 10
334.581110
 20
355.460420
 30
0.0
 10
335.902140
 20
353.349000
 30
0.0
  0
LWPOLYLINE
  5
10b
100
AcDbEntity
  8
ink_ext_XXXXXX
 62
7
100
AcDbPolyline
 90
25
 70
0
 10
308.942140
 20
315.297000
 30
0.0
 10
303.231360
 20
308.928630
 30
0.0
 10
298.479640
 20
302.597000
 30
0.0
 10
294.614420
 20
296.341880
 30
0.0
 10
291.563140
 20
290.203000
 30
0.0
 10
290.256360
 20
302.790880
 30
0.0
 10
288.177640
 20
315.423000
 30
0.0
 10
285.175670
 20
328.125630
 30
0.0
 10
281.099140
 20
340.925000
 30
0.0
 10
281.918860
 20
345.378880
 30
0.0
 10
283.291890
 20
349.103000
 30
0.0
 10
284.738800
 20
352.054630
 30
0.0
 10
285.780140
 20
354.191000
 30
0.0
 10
291.728300
 20
357.627160
 30
0.0
 10
296.067890
 20
360.940500
 30
0.0
 10
299.030110
 20
364.105340
 30
0.0
 10
300.846140
 20
367.096000
 30
0.0
 10
309.248630
 20
364.378050
 30
0.0
 10
316.249270
 20
362.764380
 30
0.0
 10
322.066590
 20
362.165270
 30
0.0
 10
326.919140
 20
362.491000
 30
0.0
 10
319.713730
 20
351.639140
 30
0.0
 10
313.756140
 20
339.381130
 30
0.0
 10
309.885790
 20
326.879550
 30
0.0
 10
308.942140
 20
315.297000
 30
0.0
  0
LWPOLYLINE
  5
10c
100
AcDbEntity
  8
ink_ext_XXXXXX
 62
7
100
AcDbPolyline
 90
269
 70
0
 10
168.551140
 20
185.873000
 30
0.0
 10
168.768730
 20
187.823340
 30
0.0
 10
168.878890
 20
190.431250
 30
0.0
 10
168.918170
 20
192.715530
 30
0.0
 10
168.923170
 20
193.695000
 30
0.0
 10
166.600110
 20
191.906200
 30
0.0
 10
160.450920
 20
187.792880
 30
0.0
 10
151.705610
 20
183.234610
 30
0.0
 10
141.594170
 20
180.111000
 30
0.0
 10
142.932620
 20
181.560090
 30
0.0
 10
144.681050
 20
183.935250
 30
0.0
 10
146.199780
 20
186.413530
 30
0.0
 10
146.849170
 20
188.172000
 30
0.0
 10
139.263980
 20
186.383170
 30
0.0
 10
128.754920
 20
185.315380
 30
0.0
 10
117.147480
 20
185.339390
 30
0.0
 10
106.267170
 20
186.826000
 30
0.0
 10
109.085310
 20
188.177450
 30
0.0
 10
113.010550
 20
190.400880
 30
0.0
 10
116.498340
 20
192.480110
 30
0.0
 10
118.004170
 20
193.399000
 30
0.0
 10
107.119580
 20
194.236800
 30
0.0
 10
93.754645
 20
196.301880
 30
0.0
 10
81.728124
 20
198.885770
 30
0.0
 10
74.858770
 20
201.280000
 30
0.0
 10
78.411947
 20
202.043060
 30
0.0
 10
81.473958
 20
203.743250
 30
0.0
 10
83.621550
 20
205.447560
 30
0.0
 10
84.431470
 20
206.223000
 30
0.0
 10
81.177142
 20
207.141240
 30
0.0
 10
73.278195
 20
209.866130
 30
0.0
 10
63.530687
 20
214.352960
 30
0.0
 10
54.730670
 20
220.557000
 30
0.0
 10
59.282861
 20
221.452220
 30
0.0
 10
63.878045
 20
223.488000
 30
0.0
 10
67.430992
 20
225.536530
 30
0.0
 10
68.856470
 20
226.470000
 30
0.0
 10
65.322862
 20
227.359110
 30
0.0
 10
56.784683
 20
230.052630
 30
0.0
 10
46.335898
 20
234.589830
 30
0.0
 10
37.070470
 20
241.010000
 30
0.0
 10
41.377445
 20
241.855470
 30
0.0
 10
44.970420
 20
243.764250
 30
0.0
 10
47.432170
 20
245.682410
 30
0.0
 10
48.345470
 20
246.556000
 30
0.0
 10
45.288601
 20
247.649700
 30
0.0
 10
37.778420
 20
250.949630
 30
0.0
 10
28.305565
 20
256.483990
 30
0.0
 10
19.360670
 20
264.281000
 30
0.0
 10
31.808789
 20
267.719200
 30
0.0
 10
43.086870
 20
267.975630
 30
0.0
 10
51.267302
 20
266.826740
 30
0.0
 10
54.422470
 20
266.049000
 30
0.0
 10
54.319220
 20
267.773890
 30
0.0
 10
53.735970
 20
271.880130
 30
0.0
 10
52.262471
 20
276.765050
 30
0.0
 10
49.488470
 20
280.826000
 30
0.0
 10
61.221714
 20
282.329860
 30
0.0
 10
72.564095
 20
280.664880
 30
0.0
 10
81.123640
 20
278.043460
 30
0.0
 10
84.508370
 20
276.678000
 30
0.0
 10
84.047370
 20
278.835830
 30
0.0
 10
82.703545
 20
283.868130
 30
0.0
 10
80.535659
 20
289.613110
 30
0.0
 10
77.602470
 20
293.909000
 30
0.0
 10
88.821532
 20
295.468420
 30
0.0
 10
99.581445
 20
294.229880
 30
0.0
 10
107.664050
 20
292.093390
 30
0.0
 10
110.851170
 20
290.959000
 30
0.0
 10
110.760230
 20
292.489670
 30
0.0
 10
110.272920
 20
296.110880
 30
0.0
 10
109.067480
 20
300.366390
 30
0.0
 10
106.822170
 20
303.800000
 30
0.0
 10
113.693200
 20
302.324610
 30
0.0
 10
124.519170
 20
297.900130
 30
0.0
 10
136.029140
 20
291.894830
 30
0.0
 10
144.952170
 20
285.677000
 30
0.0
 10
144.592510
 20
287.520300
 30
0.0
 10
143.704670
 20
291.769880
 30
0.0
 10
142.575330
 20
296.505270
 30
0.0
 10
141.491170
 20
299.806000
 30
0.0
 10
150.900690
 20
294.673590
 30
0.0
 10
159.690050
 20
287.972000
 30
0.0
 10
166.856970
 20
280.682410
 30
0.0
 10
171.399170
 20
273.786000
 30
0.0
 10
172.259260
 20
275.792980
 30
0.0
 10
173.109420
 20
278.547620
 30
0.0
 10
173.707950
 20
281.335450
 30
0.0
 10
173.813170
 20
283.442000
 30
0.0
 10
179.994370
 20
273.048520
 30
0.0
 10
183.890800
 20
262.486380
 30
0.0
 10
185.921410
 20
254.290300
 30
0.0
 10
186.505170
 20
250.995000
 30
0.0
 10
187.057250
 20
251.660440
 30
0.0
 10
188.340300
 20
253.305000
 30
0.0
 10
189.794530
 20
255.401060
 30
0.0
 10
190.860170
 20
257.421000
 30
0.0
 10
193.659620
 20
252.262310
 30
0.0
 10
196.635800
 20
243.790500
 30
0.0
 10
198.711410
 20
232.274440
 30
0.0
 10
198.809170
 20
217.983000
 30
0.0
 10
191.926260
 20
221.614450
 30
0.0
 10
185.506670
 20
224.860120
 30
0.0
 10
179.640570
 20
227.670230
 30
0.0
 10
174.418170
 20
229.995000
 30
0.0
 10
173.471000
 20
237.607390
 30
0.0
 10
170.932050
 20
248.912870
 30
0.0
 10
166.449660
 20
262.460670
 30
0.0
 10
159.672000
 20
276.800000
 30
0.0
 10
159.227000
 20
277.078250
 30
0.0
 10
158.782000
 20
277.356500
 30
0.0
 10
158.337000
 20
277.634750
 30
0.0
 10
157.892000
 20
277.913000
 30
0.0
 10
164.057940
 20
263.941640
 30
0.0
 10
167.461250
 20
250.686630
 30
0.0
 10
168.907440
 20
239.608300
 30
0.0
 10
169.202000
 20
232.167000
 30
0.0
 10
163.449730
 20
234.428660
 30
0.0
 10
157.743880
 20
236.551750
 30
0.0
 10
152.088080
 20
238.543220
 30
0.0
 10
146.486000
 20
240.410000
 30
0.0
 10
144.320560
 20
249.552860
 30
0.0
 10
139.469000
 20
263.503130
 30
0.0
 10
131.540940
 20
278.506580
 30
0.0
 10
120.146000
 20
290.809000
 30
0.0
 10
119.967500
 20
290.789000
 30
0.0
 10
119.789000
 20
290.769000
 30
0.0
 10
119.610500
 20
290.749000
 30
0.0
 10
119.432000
 20
290.729000
 30
0.0
 10
129.145110
 20
278.970000
 30
0.0
 10
135.858870
 20
264.187000
 30
0.0
 10
139.936950
 20
250.474250
 30
0.0
 10
141.743000
 20
241.926000
 30
0.0
 10
136.398880
 20
243.532270
 30
0.0
 10
131.123750
 20
245.029130
 30
0.0
 10
125.921000
 20
246.424180
 30
0.0
 10
120.794000
 20
247.725000
 30
0.0
 10
118.577470
 20
255.005270
 30
0.0
 10
113.774780
 20
265.938130
 30
0.0
 10
106.229000
 20
277.112670
 30
0.0
 10
95.783200
 20
285.118000
 30
0.0
 10
95.720700
 20
284.916500
 30
0.0
 10
95.658200
 20
284.715000
 30
0.0
 10
95.595700
 20
284.513500
 30
0.0
 10
95.533200
 20
284.312000
 30
0.0
 10
104.914160
 20
276.687950
 30
0.0
 10
111.196650
 20
265.927880
 30
0.0
 10
114.871610
 20
255.475860
 30
0.0
 10
116.430000
 20
248.776000
 30
0.0
 10
110.587270
 20
250.100370
 30
0.0
 10
104.876630
 20
251.308500
 30
0.0
 10
99.303423
 20
252.408630
 30
0.0
 10
93.873000
 20
253.409000
 30
0.0
 10
91.033462
 20
257.382390
 30
0.0
 10
85.764300
 20
263.195620
 30
0.0
 10
78.123336
 20
269.322540
 30
0.0
 10
68.168400
 20
274.237000
 30
0.0
 10
67.938125
 20
274.216500
 30
0.0
 10
67.707850
 20
274.196000
 30
0.0
 10
67.477575
 20
274.175500
 30
0.0
 10
67.247300
 20
274.155000
 30
0.0
 10
76.271441
 20
269.565330
 30
0.0
 10
82.981100
 20
263.739370
 30
0.0
 10
87.410083
 20
258.120230
 30
0.0
 10
89.592200
 20
254.151000
 30
0.0
 10
79.245405
 20
255.783190
 30
0.0
 10
69.638663
 20
257.120250
 30
0.0
 10
60.846664
 20
258.225190
 30
0.0
 10
52.944100
 20
259.161000
 30
0.0
 10
46.972834
 20
259.777750
 30
0.0
 10
40.862275
 20
260.340500
 30
0.0
 10
35.430128
 20
260.891250
 30
0.0
 10
31.494100
 20
261.472000
 30
0.0
 10
32.373125
 20
261.092000
 30
0.0
 10
33.252150
 20
260.712000
 30
0.0
 10
34.131175
 20
260.332000
 30
0.0
 10
35.010200
 20
259.952000
 30
0.0
 10
38.549263
 20
259.375920
 30
0.0
 10
42.954500
 20
258.868380
 30
0.0
 10
48.025663
 20
258.352390
 30
0.0
 10
53.562500
 20
257.751000
 30
0.0
 10
61.310984
 20
256.811980
 30
0.0
 10
69.908450
 20
255.664370
 30
0.0
 10
79.284415
 20
254.254070
 30
0.0
 10
89.368400
 20
252.527000
 30
0.0
 10
85.934739
 20
248.774420
 30
0.0
 10
79.661212
 20
243.987130
 30
0.0
 10
70.955228
 20
240.076770
 30
0.0
 10
60.224200
 20
238.955000
 30
0.0
 10
59.495400
 20
238.909000
 30
0.0
 10
58.766600
 20
238.863000
 30
0.0
 10
58.037800
 20
238.817000
 30
0.0
 10
57.309000
 20
238.771000
 30
0.0
 10
58.090825
 20
238.694000
 30
0.0
 10
58.872650
 20
238.617000
 30
0.0
 10
59.654475
 20
238.540000
 30
0.0
 10
60.436300
 20
238.463000
 30
0.0
 10
72.157450
 20
239.548270
 30
0.0
 10
82.010350
 20
243.437870
 30
0.0
 10
89.369502
 20
248.157540
 30
0.0
 10
93.609400
 20
251.733000
 30
0.0
 10
98.972856
 20
250.663830
 30
0.0
 10
104.477800
 20
249.490870
 30
0.0
 10
110.118940
 20
248.205980
 30
0.0
 10
115.891000
 20
246.801000
 30
0.0
 10
111.674990
 20
241.089270
 30
0.0
 10
104.021440
 20
232.782620
 30
0.0
 10
93.413321
 20
224.501670
 30
0.0
 10
80.333600
 20
218.867000
 30
0.0
 10
79.950775
 20
218.473750
 30
0.0
 10
79.567950
 20
218.080500
 30
0.0
 10
79.185125
 20
217.687250
 30
0.0
 10
78.802300
 20
217.294000
 30
0.0
 10
79.306500
 20
217.481250
 30
0.0
 10
79.810700
 20
217.668500
 30
0.0
 10
80.314900
 20
217.855750
 30
0.0
 10
80.819100
 20
218.043000
 30
0.0
 10
95.031652
 20
223.824140
 30
0.0
 10
106.889890
 20
232.087120
 30
0.0
 10
115.593460
 20
240.229540
 30
0.0
 10
120.342000
 20
245.649000
 30
0.0
 10
125.420980
 20
244.271780
 30
0.0
 10
130.575630
 20
242.797250
 30
0.0
 10
135.802450
 20
241.219590
 30
0.0
 10
141.098000
 20
239.533000
 30
0.0
 10
135.915220
 20
232.373190
 30
0.0
 10
126.794000
 20
222.048750
 30
0.0
 10
114.728280
 20
212.109440
 30
0.0
 10
100.712000
 20
206.105000
 30
0.0
 10
100.112120
 20
205.955750
 30
0.0
 10
99.512250
 20
205.806500
 30
0.0
 10
98.912375
 20
205.657250
 30
0.0
 10
98.312500
 20
205.508000
 30
0.0
 10
98.917625
 20
205.532000
 30
0.0
 10
99.522750
 20
205.556000
 30
0.0
 10
100.127870
 20
205.580000
 30
0.0
 10
100.733000
 20
205.604000
 30
0.0
 10
116.295480
 20
211.669310
 30
0.0
 10
130.026370
 20
221.352250
 30
0.0
 10
140.451830
 20
231.220810
 30
0.0
 10
146.098000
 20
237.843000
 30
0.0
 10
151.689310
 20
235.873220
 30
0.0
 10
157.335000
 20
233.778750
 30
0.0
 10
163.030940
 20
231.551160
 30
0.0
 10
168.773000
 20
229.182000
 30
0.0
 10
163.744450
 20
222.348250
 30
0.0
 10
154.056620
 20
211.069250
 30
0.0
 10
141.321730
 20
199.451630
 30
0.0
 10
127.152000
 20
191.602000
 30
0.0
 10
126.804500
 20
191.446000
 30
0.0
 10
126.457000
 20
191.290000
 30
0.0
 10
126.109500
 20
191.134000
 30
0.0
 10
125.762000
 20
190.978000
 30
0.0
 10
126.265000
 20
190.902000
 30
0.0
 10
126.768000
 20
190.826000
 30
0.0
 10
127.271000
 20
190.750000
 30
0.0
 10
127.774000
 20
190.674000
 30
0.0
 10
143.075760
 20
198.341090
 30
0.0
 10
157.333620
 20
209.303500
 30
0.0
 10
168.366670
 20
220.008660
 30
0.0
 10
173.994000
 20
226.904000
 30
0.0
 10
179.104060
 20
224.450220
 30
0.0
 10
184.844500
 20
221.362500
 30
0.0
 10
191.127190
 20
217.713030
 30
0.0
 10
197.864000
 20
213.574000
 30
0.0
 10
190.483440
 20
204.549130
 30
0.0
 10
182.237750
 20
196.301250
 30
0.0
 10
174.476940
 20
189.764500
 30
0.0
 10
168.551000
 20
185.873000
 30
0.0
  0
LWPOLYLINE
  5
10d
100
AcDbEntity
  8
ink_ext_XXXXXX
 62
7
100
AcDbPolyline
 90
269
 70
0
 10
228.027000
 20
130.913000
 30
0.0
 10
227.219720
 20
131.927700
 30
0.0
 10
226.056000
 20
133.201620
 30
0.0
 10
225.010030
 20
134.291230
 30
0.0
 10
224.556000
 20
134.753000
 30
0.0
 10
224.496010
 20
132.664560
 30
0.0
 10
223.856370
 20
127.592250
 30
0.0
 10
221.947540
 20
121.325560
 30
0.0
 10
218.080000
 20
115.654000
 30
0.0
 10
217.962050
 20
116.632480
 30
0.0
 10
217.519620
 20
117.850120
 30
0.0
 10
216.921390
 20
119.009450
 30
0.0
 10
216.336000
 20
119.813000
 30
0.0
 10
213.685880
 20
115.762800
 30
0.0
 10
209.412750
 20
111.075370
 30
0.0
 10
204.116250
 20
106.388510
 30
0.0
 10
198.396000
 20
102.340000
 30
0.0
 10
199.213110
 20
104.612780
 30
0.0
 10
200.294120
 20
108.205000
 30
0.0
 10
201.237320
 20
111.526470
 30
0.0
 10
201.641000
 20
112.987000
 30
0.0
 10
195.964390
 20
107.849200
 30
0.0
 10
188.332620
 20
101.580790
 30
0.0
 10
181.086540
 20
96.178984
 30
0.0
 10
176.567000
 20
93.641000
 30
0.0
 10
177.936160
 20
95.784880
 30
0.0
 10
178.707750
 20
98.295087
 30
0.0
 10
179.048470
 20
100.381000
 30
0.0
 10
179.125000
 20
101.252000
 30
0.0
 10
177.171920
 20
100.166550
 30
0.0
 10
172.200370
 20
97.764225
 30
0.0
 10
165.541890
 20
95.326092
 30
0.0
 10
158.528000
 20
94.133200
 30
0.0
 10
160.244340
 20
96.673297
 30
0.0
 10
161.448250
 20
99.768825
 30
0.0
 10
162.157530
 20
102.384990
 30
0.0
 10
162.390000
 20
103.487000
 30
0.0
 10
160.320060
 20
102.257000
 30
0.0
 10
155.064500
 20
99.540562
 30
0.0
 10
148.054690
 20
96.798046
 30
0.0
 10
140.722000
 20
95.489800
 30
0.0
 10
142.345910
 20
97.892375
 30
0.0
 10
143.139750
 20
100.461300
 30
0.0
 10
143.399220
 20
102.507780
 30
0.0
 10
143.420000
 20
103.343000
 30
0.0
 10
141.477980
 20
102.431250
 30
0.0
 10
136.421120
 20
100.478420
 30
0.0
 10
129.403200
 20
98.658161
 30
0.0
 10
121.578000
 20
98.144100
 30
0.0
 10
125.810140
 20
105.554130
 30
0.0
 10
130.976120
 20
110.928510
 30
0.0
 10
135.345040
 20
114.201410
 30
0.0
 10
137.186000
 20
115.307000
 30
0.0
 10
136.334110
 20
116.066970
 30
0.0
 10
134.147870
 20
117.719250
 30
0.0
 10
131.181450
 20
119.322400
 30
0.0
 10
127.989000
 20
119.935000
 30
0.0
 10
132.787170
 20
126.104910
 30
0.0
 10
138.878620
 20
130.609250
 30
0.0
 10
144.111510
 20
133.369470
 30
0.0
 10
146.334000
 20
134.307000
 30
0.0
 10
145.112120
 20
135.103440
 30
0.0
 10
142.136750
 20
136.835500
 30
0.0
 10
138.443250
 20
138.517310
 30
0.0
 10
135.067000
 20
139.163000
 30
0.0
 10
139.598050
 20
145.121270
 30
0.0
 10
145.216870
 20
149.554870
 30
0.0
 10
149.999270
 20
152.320300
 30
0.0
 10
152.021000
 20
153.274000
 30
0.0
 10
151.265340
 20
153.948700
 30
0.0
 10
149.350000
 20
155.418120
 30
0.0
 10
146.802400
 20
156.850230
 30
0.0
 10
144.150000
 20
157.413000
 30
0.0
 10
148.359140
 20
159.852550
 30
0.0
 10
156.156370
 20
162.666620
 30
0.0
 10
165.010170
 20
165.058640
 30
0.0
 10
172.389000
 20
166.232000
 30
0.0
 10
171.095580
 20
167.088660
 30
0.0
 10
168.114370
 20
169.019500
 30
0.0
 10
164.793980
 20
171.065840
 30
0.0
 10
162.483000
 20
172.269000
 30
0.0
 10
169.247720
 20
174.157420
 30
0.0
 10
176.412750
 20
174.915120
 30
0.0
 10
183.092160
 20
174.641760
 30
0.0
 10
188.400000
 20
173.437000
 30
0.0
 10
187.866550
 20
174.777670
 30
0.0
 10
186.980870
 20
176.464370
 30
0.0
 10
185.962260
 20
178.049640
 30
0.0
 10
185.030000
 20
179.086000
 30
0.0
 10
192.332640
 20
177.512690
 30
0.0
 10
199.616620
 20
174.418000
 30
0.0
 10
205.211800
 20
171.393810
 30
0.0
 10
207.448000
 20
170.032000
 30
0.0
 10
207.323890
 20
170.769090
 30
0.0
 10
206.998870
 20
172.507250
 30
0.0
 10
206.543920
 20
174.536780
 30
0.0
 10
206.030000
 20
176.148000
 30
0.0
 10
209.468340
 20
174.908300
 30
0.0
 10
214.289500
 20
172.075870
 30
0.0
 10
220.064650
 20
167.518260
 30
0.0
 10
226.365000
 20
161.103000
 30
0.0
 10
222.397110
 20
159.430890
 30
0.0
 10
218.406620
 20
157.728870
 30
0.0
 10
214.358580
 20
156.018420
 30
0.0
 10
210.218000
 20
154.321000
 30
0.0
 10
206.227880
 20
157.447920
 30
0.0
 10
199.769500
 20
161.563620
 30
0.0
 10
191.355120
 20
165.824260
 30
0.0
 10
181.497000
 20
169.386000
 30
0.0
 10
181.159500
 20
169.309000
 30
0.0
 10
180.822000
 20
169.232000
 30
0.0
 10
180.484500
 20
169.155000
 30
0.0
 10
180.147000
 20
169.078000
 30
0.0
 10
189.545550
 20
165.403420
 30
0.0
 10
197.316120
 20
160.778120
 30
0.0
 10
203.155640
 20
156.261010
 30
0.0
 10
206.761000
 20
152.911000
 30
0.0
 10
203.011750
 20
151.290580
 30
0.0
 10
199.348750
 20
149.626370
 30
0.0
 10
195.770880
 20
147.923730
 30
0.0
 10
192.277000
 20
146.188000
 30
0.0
 10
187.001200
 20
149.464110
 30
0.0
 10
178.227870
 20
153.741370
 30
0.0
 10
167.522360
 20
157.078700
 30
0.0
 10
156.450000
 20
157.535000
 30
0.0
 10
156.375500
 20
157.442000
 30
0.0
 10
156.301000
 20
157.349000
 30
0.0
 10
156.226500
 20
157.256000
 30
0.0
 10
156.152000
 20
157.163000
 30
0.0
 10
166.183110
 20
156.179470
 30
0.0
 10
176.217120
 20
152.380250
 30
0.0
 10
184.517330
 20
147.853900
 30
0.0
 10
189.347000
 20
144.689000
 30
0.0
 10
186.093920
 20
142.951080
 30
0.0
 10
182.923620
 20
141.194870
 30
0.0
 10
179.835270
 20
139.424980
 30
0.0
 10
176.828000
 20
137.646000
 30
0.0
 10
172.396910
 20
140.024420
 30
0.0
 10
165.051500
 20
142.910120
 30
0.0
 10
156.308840
 20
144.631260
 30
0.0
 10
147.686000
 20
143.516000
 30
0.0
 10
147.750250
 20
143.392250
 30
0.0
 10
147.814500
 20
143.268500
 30
0.0
 10
147.878750
 20
143.144750
 30
0.0
 10
147.943000
 20
143.021000
 30
0.0
 10
155.891480
 20
143.819840
 30
0.0
 10
163.848870
 20
141.704750
 30
0.0
 10
170.440330
 20
138.519030
 30
0.0
 10
174.291000
 20
136.106000
 30
0.0
 10
170.936950
 20
134.004090
 30
0.0
 10
167.698870
 20
131.908750
 30
0.0
 10
164.575360
 20
129.826530
 30
0.0
 10
161.565000
 20
127.764000
 30
0.0
 10
158.381690
 20
128.303720
 30
0.0
 10
153.203750
 20
128.573250
 30
0.0
 10
146.768440
 20
127.884660
 30
0.0
 10
139.813000
 20
125.550000
 30
0.0
 10
139.714750
 20
125.433000
 30
0.0
 10
139.616500
 20
125.316000
 30
0.0
 10
139.518250
 20
125.199000
 30
0.0
 10
139.420000
 20
125.082000
 30
0.0
 10
145.786660
 20
127.135170
 30
0.0
 10
151.645000
 20
127.531120
 30
0.0
 10
156.338590
 20
126.962010
 30
0.0
 10
159.211000
 20
126.120000
 30
0.0
 10
153.602090
 20
122.064050
 30
0.0
 10
148.476750
 20
118.214620
 30
0.0
 10
143.841530
 20
114.636140
 30
0.0
 10
139.703000
 20
111.393000
 30
0.0
 10
136.617340
 20
108.898830
 30
0.0
 10
133.491750
 20
106.315120
 30
0.0
 10
130.689780
 20
104.042110
 30
0.0
 10
128.575000
 20
102.480000
 30
0.0
 10
129.164000
 20
102.711750
 30
0.0
 10
129.753000
 20
102.943500
 30
0.0
 10
130.342000
 20
103.175250
 30
0.0
 10
130.931000
 20
103.407000
 30
0.0
 10
132.858360
 20
104.784810
 30
0.0
 10
135.159120
 20
106.599500
 30
0.0
 10
137.775080
 20
108.720940
 30
0.0
 10
140.648000
 20
111.019000
 30
0.0
 10
144.716950
 20
114.188780
 30
0.0
 10
149.281370
 20
117.657250
 30
0.0
 10
154.332360
 20
121.365350
 30
0.0
 10
159.861000
 20
125.254000
 30
0.0
 10
160.001800
 20
121.895080
 30
0.0
 10
159.293120
 20
116.728370
 30
0.0
 10
157.035140
 20
110.839230
 30
0.0
 10
152.528000
 20
105.313000
 30
0.0
 10
152.208000
 20
104.952250
 30
0.0
 10
151.888000
 20
104.591500
 30
0.0
 10
151.568000
 20
104.230750
 30
0.0
 10
151.248000
 20
103.870000
 30
0.0
 10
151.650750
 20
104.198500
 30
0.0
 10
152.053500
 20
104.527000
 30
0.0
 10
152.456250
 20
104.855500
 30
0.0
 10
152.859000
 20
105.184000
 30
0.0
 10
157.845880
 20
111.153420
 30
0.0
 10
160.650250
 20
117.566370
 30
0.0
 10
161.899500
 20
123.206640
 30
0.0
 10
162.221000
 20
126.858000
 30
0.0
 10
165.232860
 20
128.855130
 30
0.0
 10
168.359370
 20
130.870250
 30
0.0
 10
171.601950
 20
132.897000
 30
0.0
 10
174.962000
 20
134.929000
 30
0.0
 10
175.645510
 20
130.287770
 30
0.0
 10
175.928620
 20
122.828870
 30
0.0
 10
174.816170
 20
114.005550
 30
0.0
 10
171.313000
 20
105.271000
 30
0.0
 10
171.316700
 20
104.908000
 30
0.0
 10
171.320400
 20
104.545000
 30
0.0
 10
171.324200
 20
104.182000
 30
0.0
 10
171.327900
 20
103.819000
 30
0.0
 10
171.477150
 20
104.141750
 30
0.0
 10
171.626400
 20
104.464500
 30
0.0
 10
171.775650
 20
104.787250
 30
0.0
 10
171.924900
 20
105.110000
 30
0.0
 10
175.891180
 20
114.441230
 30
0.0
 10
177.598650
 20
123.838370
 30
0.0
 10
177.883740
 20
131.709080
 30
0.0
 10
177.582900
 20
136.461000
 30
0.0
 10
180.604240
 20
138.183560
 30
0.0
 10
183.706400
 20
139.894500
 30
0.0
 10
186.890310
 20
141.590440
 30
0.0
 10
190.156900
 20
143.268000
 30
0.0
 10
191.064180
 20
137.497640
 30
0.0
 10
191.600400
 20
128.409370
 30
0.0
 10
190.577370
 20
118.129170
 30
0.0
 10
186.806900
 20
108.783000
 30
0.0
 10
186.595900
 20
108.434000
 30
0.0
 10
186.384900
 20
108.085000
 30
0.0
 10
186.173900
 20
107.736000
 30
0.0
 10
185.962900
 20
107.387000
 30
0.0
 10
186.235150
 20
107.680750
 30
0.0
 10
186.507400
 20
107.974500
 30
0.0
 10
186.779650
 20
108.268250
 30
0.0
 10
187.051900
 20
108.562000
 30
0.0
 10
191.518840
 20
118.655380
 30
0.0
 10
193.441400
 20
129.590250
 30
0.0
 10
193.728210
 20
139.072000
 30
0.0
 10
193.287900
 20
144.806000
 30
0.0
 10
196.826620
 20
146.487440
 30
0.0
 10
200.448400
 20
148.136250
 30
0.0
 10
204.155680
 20
149.746440
 30
0.0
 10
207.950900
 20
151.312000
 30
0.0
 10
208.778240
 20
145.766250
 30
0.0
 10
209.494400
 20
135.966500
 30
0.0
 10
208.940060
 20
124.588750
 30
0.0
 10
205.955900
 20
114.309000
 30
0.0
 10
205.865900
 20
114.074000
 30
0.0
 10
205.775900
 20
113.839000
 30
0.0
 10
205.685900
 20
113.604000
 30
0.0
 10
205.595900
 20
113.369000
 30
0.0
 10
205.866900
 20
113.567750
 30
0.0
 10
206.137900
 20
113.766500
 30
0.0
 10
206.408900
 20
113.965250
 30
0.0
 10
206.679900
 20
114.164000
 30
0.0
 10
210.279040
 20
124.885390
 30
0.0
 10
211.853270
 20
136.665120
 30
0.0
 10
212.035320
 20
146.822050
 30
0.0
 10
211.457900
 20
152.675000
 30
0.0
 10
215.630590
 20
154.216750
 30
0.0
 10
219.901900
 20
155.690250
 30
0.0
 10
224.265460
 20
157.095120
 30
0.0
 10
228.714900
 20
158.431000
 30
0.0
 10
229.576020
 20
150.601620
 30
0.0
 10
229.603900
 20
142.627500
 30
0.0
 10
229.015270
 20
135.675620
 30
0.0
 10
228.026900
 20
130.913000
 30
0.0
  0
LWPOLYLINE
  5
10e
100
AcDbEntity
  8
ink_ext_XXXXXX
 62
7
100
AcDbPolyline
 90
269
 70
0
 10
237.311900
 20
205.257000
 30
0.0
 10
237.980040
 20
205.962830
 30
0.0
 10
238.803520
 20
206.960870
 30
0.0
 10
239.502700
 20
207.852230
 30
0.0
 10
239.797900
 20
208.238000
 30
0.0
 10
238.240600
 20
208.063450
 30
0.0
 10
234.406770
 20
208.006370
 30
0.0
 10
229.553510
 20
208.766600
 30
0.0
 10
224.937900
 20
211.044000
 30
0.0
 10
225.832010
 20
211.229610
 30
0.0
 10
227.086770
 20
211.675370
 30
0.0
 10
228.282100
 20
212.230450
 30
0.0
 10
228.997900
 20
212.744000
 30
0.0
 10
225.532160
 20
214.291560
 30
0.0
 10
221.206270
 20
216.982500
 30
0.0
 10
216.772950
 20
220.433940
 30
0.0
 10
212.984900
 20
224.263000
 30
0.0
 10
214.501510
 20
223.953970
 30
0.0
 10
216.717770
 20
223.658250
 30
0.0
 10
218.718600
 20
223.436410
 30
0.0
 10
219.588900
 20
223.349000
 30
0.0
 10
215.537150
 20
226.937170
 30
0.0
 10
210.872650
 20
231.751120
 30
0.0
 10
206.893270
 20
236.368760
 30
0.0
 10
204.896900
 20
239.368000
 30
0.0
 10
206.526880
 20
238.606920
 30
0.0
 10
208.243770
 20
238.362870
 30
0.0
 10
209.601230
 20
238.393890
 30
0.0
 10
210.152900
 20
238.458000
 30
0.0
 10
209.142060
 20
239.794250
 30
0.0
 10
206.836900
 20
243.233500
 30
0.0
 10
204.328490
 20
247.921500
 30
0.0
 10
202.707900
 20
253.004000
 30
0.0
 10
204.773340
 20
251.995660
 30
0.0
 10
207.197650
 20
251.427000
 30
0.0
 10
209.214340
 20
251.175590
 30
0.0
 10
210.056900
 20
251.119000
 30
0.0
 10
208.926650
 20
252.527000
 30
0.0
 10
206.358650
 20
256.144500
 30
0.0
 10
203.587020
 20
261.061750
 30
0.0
 10
201.845900
 20
266.369000
 30
0.0
 10
203.799790
 20
265.415230
 30
0.0
 10
205.790520
 20
265.094370
 30
0.0
 10
207.337450
 20
265.115320
 30
0.0
 10
207.959900
 20
265.187000
 30
0.0
 10
207.082350
 20
266.672000
 30
0.0
 10
205.108770
 20
270.527000
 30
0.0
 10
203.027760
 20
275.852000
 30
0.0
 10
201.827900
 20
281.747000
 30
0.0
 10
207.770700
 20
279.245450
 30
0.0
 10
212.297020
 20
275.669620
 30
0.0
 10
215.179540
 20
272.464480
 30
0.0
 10
216.190900
 20
271.075000
 30
0.0
 10
216.665680
 20
271.787230
 30
0.0
 10
217.662650
 20
273.583870
 30
0.0
 10
218.540750
 20
275.954830
 30
0.0
 10
218.658900
 20
278.390000
 30
0.0
 10
223.746310
 20
275.474250
 30
0.0
 10
227.731400
 20
271.423000
 30
0.0
 10
230.330490
 20
267.826250
 30
0.0
 10
231.259900
 20
266.274000
 30
0.0
 10
231.722710
 20
267.264720
 30
0.0
 10
232.695900
 20
269.655500
 30
0.0
 10
233.556590
 20
272.574280
 30
0.0
 10
233.681900
 20
275.149000
 30
0.0
 10
238.670150
 20
272.327190
 30
0.0
 10
242.747150
 20
268.437750
 30
0.0
 10
245.497770
 20
264.994190
 30
0.0
 10
246.506900
 20
263.510000
 30
0.0
 10
246.732850
 20
264.232750
 30
0.0
 10
247.249520
 20
266.004750
 30
0.0
 10
247.815130
 20
268.231630
 30
0.0
 10
248.187900
 20
270.319000
 30
0.0
 10
250.462060
 20
267.681080
 30
0.0
 10
253.416650
 20
262.695370
 30
0.0
 10
256.168370
 20
256.880730
 30
0.0
 10
257.833900
 20
251.756000
 30
0.0
 10
258.243520
 20
252.591750
 30
0.0
 10
259.164650
 20
254.536000
 30
0.0
 10
260.135650
 20
256.744250
 30
0.0
 10
260.694900
 20
258.372000
 30
0.0
 10
262.876590
 20
253.529830
 30
0.0
 10
264.344650
 20
248.253120
 30
0.0
 10
264.996340
 20
243.229360
 30
0.0
 10
264.728900
 20
239.146000
 30
0.0
 10
265.737790
 20
239.712840
 30
0.0
 10
267.050520
 20
240.615500
 30
0.0
 10
268.274190
 20
241.606660
 30
0.0
 10
269.015900
 20
242.439000
 30
0.0
 10
268.912070
 20
236.830110
 30
0.0
 10
267.070020
 20
231.380870
 30
0.0
 10
264.917660
 20
227.256700
 30
0.0
 10
263.882900
 20
225.623000
 30
0.0
 10
264.509510
 20
225.805830
 30
0.0
 10
265.969270
 20
226.259120
 30
0.0
 10
267.632100
 20
226.840110
 30
0.0
 10
268.867900
 20
227.406000
 30
0.0
 10
268.243020
 20
224.496190
 30
0.0
 10
266.484150
 20
220.155750
 30
0.0
 10
263.485900
 20
214.888690
 30
0.0
 10
259.142900
 20
209.199000
 30
0.0
 10
257.482230
 20
212.424120
 30
0.0
 10
255.862520
 20
215.473750
 30
0.0
 10
254.303010
 20
218.320500
 30
0.0
 10
252.822900
 20
220.937000
 30
0.0
 10
254.726130
 20
224.228970
 30
0.0
 10
257.104780
 20
229.456500
 30
0.0
 10
259.385730
 20
236.151780
 30
0.0
 10
260.995900
 20
243.847000
 30
0.0
 10
260.903400
 20
244.089500
 30
0.0
 10
260.810900
 20
244.332000
 30
0.0
 10
260.718400
 20
244.574500
 30
0.0
 10
260.625900
 20
244.817000
 30
0.0
 10
258.884730
 20
237.450590
 30
0.0
 10
256.265770
 20
231.194750
 30
0.0
 10
253.523630
 20
226.385280
 30
0.0
 10
251.412900
 20
223.358000
 30
0.0
 10
249.817030
 20
225.972030
 30
0.0
 10
248.197150
 20
228.517250
 30
0.0
 10
246.557400
 20
230.995340
 30
0.0
 10
244.901900
 20
233.408000
 30
0.0
 10
246.781120
 20
237.668950
 30
0.0
 10
249.036650
 20
244.631870
 30
0.0
 10
250.391060
 20
252.931110
 30
0.0
 10
249.566900
 20
261.201000
 30
0.0
 10
249.490400
 20
261.246250
 30
0.0
 10
249.413900
 20
261.291500
 30
0.0
 10
249.337400
 20
261.336750
 30
0.0
 10
249.260900
 20
261.382000
 30
0.0
 10
249.582510
 20
253.831020
 30
0.0
 10
247.814520
 20
245.981620
 30
0.0
 10
245.325230
 20
239.343670
 30
0.0
 10
243.482900
 20
235.427000
 30
0.0
 10
241.850930
 20
237.659340
 30
0.0
 10
240.213900
 20
239.827750
 30
0.0
 10
238.575370
 20
241.934280
 30
0.0
 10
236.938900
 20
243.981000
 30
0.0
 10
238.240460
 20
247.522330
 30
0.0
 10
239.612150
 20
253.279620
 30
0.0
 10
239.972460
 20
259.951360
 30
0.0
 10
238.239900
 20
266.236000
 30
0.0
 10
238.154650
 20
266.175750
 30
0.0
 10
238.069400
 20
266.115500
 30
0.0
 10
237.984150
 20
266.055250
 30
0.0
 10
237.898900
 20
265.995000
 30
0.0
 10
239.325320
 20
260.176810
 30
0.0
 10
238.589770
 20
254.046250
 30
0.0
 10
236.915790
 20
248.816810
 30
0.0
 10
235.526900
 20
245.702000
 30
0.0
 10
233.615200
 20
247.973390
 30
0.0
 10
231.720270
 20
250.158620
 30
0.0
 10
229.846910
 20
252.260040
 30
0.0
 10
228.000000
 20
254.280000
 30
0.0
 10
228.065750
 20
256.699860
 30
0.0
 10
227.722000
 20
260.573120
 30
0.0
 10
226.535250
 20
265.279830
 30
0.0
 10
224.072000
 20
270.200000
 30
0.0
 10
223.974500
 20
270.260500
 30
0.0
 10
223.877000
 20
270.321000
 30
0.0
 10
223.779500
 20
270.381500
 30
0.0
 10
223.682000
 20
270.442000
 30
0.0
 10
225.876800
 20
265.928800
 30
0.0
 10
226.785620
 20
261.619870
 30
0.0
 10
226.854640
 20
258.075010
 30
0.0
 10
226.530000
 20
255.854000
 30
0.0
 10
222.929360
 20
259.592910
 30
0.0
 10
219.533370
 20
262.994500
 30
0.0
 10
216.389950
 20
266.060840
 30
0.0
 10
213.547000
 20
268.794000
 30
0.0
 10
211.372090
 20
270.823660
 30
0.0
 10
209.125750
 20
272.873750
 30
0.0
 10
207.143780
 20
274.715720
 30
0.0
 10
205.762000
 20
276.121000
 30
0.0
 10
205.995750
 20
275.708000
 30
0.0
 10
206.229500
 20
275.295000
 30
0.0
 10
206.463250
 20
274.882000
 30
0.0
 10
206.697000
 20
274.469000
 30
0.0
 10
207.922880
 20
273.184670
 30
0.0
 10
209.511750
 20
271.666620
 30
0.0
 10
211.361250
 20
269.945510
 30
0.0
 10
213.369000
 20
268.052000
 30
0.0
 10
216.148800
 20
265.363500
 30
0.0
 10
219.202620
 20
262.339000
 30
0.0
 10
222.486140
 20
258.977750
 30
0.0
 10
225.955000
 20
255.279000
 30
0.0
 10
223.475700
 20
254.822620
 30
0.0
 10
219.565120
 20
254.806500
 30
0.0
 10
214.955730
 20
255.865120
 30
0.0
 10
210.380000
 20
258.633000
 30
0.0
 10
210.078000
 20
258.832500
 30
0.0
 10
209.776000
 20
259.032000
 30
0.0
 10
209.474000
 20
259.231500
 30
0.0
 10
209.172000
 20
259.431000
 30
0.0
 10
209.458500
 20
259.167000
 30
0.0
 10
209.745000
 20
258.903000
 30
0.0
 10
210.031500
 20
258.639000
 30
0.0
 10
210.318000
 20
258.375000
 30
0.0
 10
215.273840
 20
255.298280
 30
0.0
 10
220.330000
 20
253.888250
 30
0.0
 10
224.649660
 20
253.551840
 30
0.0
 10
227.396000
 20
253.696000
 30
0.0
 10
229.194470
 20
251.670580
 30
0.0
 10
231.018250
 20
249.560870
 30
0.0
 10
232.862650
 20
247.365480
 30
0.0
 10
234.723000
 20
245.083000
 30
0.0
 10
231.348800
 20
244.087110
 30
0.0
 10
225.840380
 20
243.094120
 30
0.0
 10
219.172270
 20
242.994570
 30
0.0
 10
212.319000
 20
244.679000
 30
0.0
 10
212.050500
 20
244.638250
 30
0.0
 10
211.782000
 20
244.597500
 30
0.0
 10
211.513500
 20
244.556750
 30
0.0
 10
211.245000
 20
244.516000
 30
0.0
 10
211.499250
 20
244.439250
 30
0.0
 10
211.753500
 20
244.362500
 30
0.0
 10
212.007750
 20
244.285750
 30
0.0
 10
212.262000
 20
244.209000
 30
0.0
 10
219.608080
 20
242.242730
 30
0.0
 10
226.765630
 20
241.960870
 30
0.0
 10
232.640110
 20
242.575070
 30
0.0
 10
236.137000
 20
243.297000
 30
0.0
 10
237.732560
 20
241.234140
 30
0.0
 10
239.328500
 20
239.109870
 30
0.0
 10
240.922190
 20
236.923170
 30
0.0
 10
242.511000
 20
234.673000
 30
0.0
 10
238.322020
 20
233.394450
 30
0.0
 10
231.629630
 20
232.042870
 30
0.0
 10
223.888170
 20
231.723100
 30
0.0
 10
216.552000
 20
233.540000
 30
0.0
 10
216.271250
 20
233.660750
 30
0.0
 10
215.990500
 20
233.781500
 30
0.0
 10
215.709750
 20
233.902250
 30
0.0
 10
215.429000
 20
234.023000
 30
0.0
 10
215.675000
 20
233.852000
 30
0.0
 10
215.921000
 20
233.681000
 30
0.0
 10
216.167000
 20
233.510000
 30
0.0
 10
216.413000
 20
233.339000
 30
0.0
 10
224.376910
 20
231.081250
 30
0.0
 10
232.698750
 20
230.800500
 30
0.0
 10
239.769970
 20
231.581750
 30
0.0
 10
243.982000
 20
232.510000
 30
0.0
 10
245.602530
 20
230.059970
 30
0.0
 10
247.206750
 20
227.543750
 30
0.0
 10
248.791090
 20
224.960410
 30
0.0
 10
250.352000
 20
222.309000
 30
0.0
 10
246.320810
 20
221.110700
 30
0.0
 10
239.119000
 20
219.549870
 30
0.0
 10
230.612190
 20
218.767360
 30
0.0
 10
222.666000
 20
219.904000
 30
0.0
 10
222.481500
 20
219.946250
 30
0.0
 10
222.297000
 20
219.988500
 30
0.0
 10
222.112500
 20
220.030750
 30
0.0
 10
221.928000
 20
220.073000
 30
0.0
 10
222.104500
 20
219.892750
 30
0.0
 10
222.281000
 20
219.712500
 30
0.0
 10
222.457500
 20
219.532250
 30
0.0
 10
222.634000
 20
219.352000
 30
0.0
 10
230.973940
 20
217.804480
 30
0.0
 10
239.886500
 20
217.871620
 30
0.0
 10
247.447560
 20
218.801450
 30
0.0
 10
251.733000
 20
219.842000
 30
0.0
 10
253.234830
 20
216.947110
 30
0.0
 10
254.629880
 20
213.902870
 30
0.0
 10
255.927990
 20
210.723450
 30
0.0
 10
257.139000
 20
207.423000
 30
0.0
 10
251.530030
 20
206.072340
 30
0.0
 10
245.817750
 20
205.284000
 30
0.0
 10
240.809340
 20
205.023660
 30
0.0
 10
237.312000
 20
205.257000
 30
0.0
  0
LWPOLYLINE
  5
10f
100
AcDbEntity
  8
ink_ext_XXXXXX
 62
7
100
AcDbPolyline
 90
677
 70
0
 10
438.057000
 20
271.869000
 30
0.0
 10
429.381050
 20
270.487830
 30
0.0
 10
420.846370
 20
268.000120
 30
0.0
 10
414.341020
 20
265.618360
 30
0.0
 10
411.753000
 20
264.555000
 30
0.0
 10
412.188720
 20
265.562980
 30
0.0
 10
413.350250
 20
268.016870
 30
0.0
 10
415.019160
 20
271.061580
 30
0.0
 10
416.977000
 20
273.842000
 30
0.0
 10
409.038690
 20
271.513560
 30
0.0
 10
400.950000
 20
267.639000
 30
0.0
 10
394.664310
 20
264.004440
 30
0.0
 10
392.135000
 20
262.396000
 30
0.0
 10
392.804420
 20
263.532670
 30
0.0
 10
394.464870
 20
266.250620
 30
0.0
 10
396.594640
 20
269.511770
 30
0.0
 10
398.672000
 20
272.278000
 30
0.0
 10
390.977030
 20
270.125970
 30
0.0
 10
383.061000
 20
266.649250
 30
0.0
 10
376.878220
 20
263.414410
 30
0.0
 10
374.383000
 20
261.988000
 30
0.0
 10
374.672480
 20
262.935910
 30
0.0
 10
375.472620
 20
265.213000
 30
0.0
 10
376.680950
 20
267.969350
 30
0.0
 10
378.195000
 20
270.355000
 30
0.0
 10
373.963920
 20
268.250480
 30
0.0
 10
367.417870
 20
264.129120
 30
0.0
 10
360.546140
 20
259.087700
 30
0.0
 10
355.338000
 20
254.223000
 30
0.0
 10
355.429690
 20
255.359860
 30
0.0
 10
355.679250
 20
257.977120
 30
0.0
 10
356.048440
 20
260.884830
 30
0.0
 10
356.499000
 20
262.893000
 30
0.0
 10
350.629800
 20
257.713050
 30
0.0
 10
344.873370
 20
251.458620
 30
0.0
 10
340.169760
 20
245.329640
 30
0.0
 10
337.459000
 20
240.526000
 30
0.0
 10
336.802190
 20
241.750890
 30
0.0
 10
336.115750
 20
243.917120
 30
0.0
 10
335.584190
 20
246.161550
 30
0.0
 10
335.392000
 20
247.621000
 30
0.0
 10
331.607580
 20
241.189360
 30
0.0
 10
329.569620
 20
234.093870
 30
0.0
 10
328.740860
 20
228.354950
 30
0.0
 10
328.584000
 20
225.993000
 30
0.0
 10
328.114860
 20
226.802630
 30
0.0
 10
327.047120
 20
228.711750
 30
0.0
 10
325.890320
 20
230.940750
 30
0.0
 10
325.154000
 20
232.710000
 30
0.0
 10
323.331720
 20
226.330810
 30
0.0
 10
322.216500
 20
215.743000
 30
0.0
 10
322.067280
 20
204.051190
 30
0.0
 10
323.143000
 20
194.360000
 30
0.0
 10
315.893370
 20
191.827590
 30
0.0
 10
308.390250
 20
189.516250
 30
0.0
 10
300.631750
 20
187.448280
 30
0.0
 10
292.616000
 20
185.646000
 30
0.0
 10
291.741000
 20
207.154080
 30
0.0
 10
291.859750
 20
228.251620
 30
0.0
 10
292.311130
 20
249.053110
 30
0.0
 10
292.434000
 20
269.673000
 30
0.0
 10
294.726340
 20
274.816610
 30
0.0
 10
298.421000
 20
280.173870
 30
0.0
 10
302.891160
 20
285.124450
 30
0.0
 10
307.510000
 20
289.048000
 30
0.0
 10
311.822250
 20
291.414030
 30
0.0
 10
316.470500
 20
292.602000
 30
0.0
 10
321.430750
 20
292.620720
 30
0.0
 10
326.679000
 20
291.479000
 30
0.0
 10
328.499480
 20
291.429670
 30
0.0
 10
329.295370
 20
292.018870
 30
0.0
 10
328.978080
 20
292.964140
 30
0.0
 10
327.459000
 20
293.983000
 30
0.0
 10
321.410500
 20
295.419380
 30
0.0
 10
315.645500
 20
295.673000
 30
0.0
 10
310.219500
 20
294.573630
 30
0.0
 10
305.188000
 20
291.951000
 30
0.0
 10
302.349700
 20
289.856590
 30
0.0
 10
299.694870
 20
287.625500
 30
0.0
 10
297.348860
 20
285.148410
 30
0.0
 10
295.437000
 20
282.316000
 30
0.0
 10
296.779470
 20
289.544280
 30
0.0
 10
299.659250
 20
296.746500
 30
0.0
 10
304.456410
 20
304.304970
 30
0.0
 10
311.551000
 20
312.602000
 30
0.0
 10
311.616000
 20
312.545750
 30
0.0
 10
311.681000
 20
312.489500
 30
0.0
 10
311.746000
 20
312.433250
 30
0.0
 10
311.811000
 20
312.377000
 30
0.0
 10
311.810000
 20
312.378000
 30
0.0
 10
311.809000
 20
312.379000
 30
0.0
 10
311.808000
 20
312.379000
 30
0.0
 10
311.808000
 20
312.380000
 30
0.0
 10
311.809500
 20
312.378500
 30
0.0
 10
311.810900
 20
312.377200
 30
0.0
 10
311.812200
 20
312.376200
 30
0.0
 10
311.813200
 20
312.376200
 30
0.0
 10
311.886450
 20
312.312950
 30
0.0
 10
311.959700
 20
312.249700
 30
0.0
 10
312.032950
 20
312.186450
 30
0.0
 10
312.106200
 20
312.123200
 30
0.0
 10
312.110700
 20
312.129800
 30
0.0
 10
312.116400
 20
312.136400
 30
0.0
 10
312.122500
 20
312.143400
 30
0.0
 10
312.128200
 20
312.151100
 30
0.0
 10
325.123510
 20
304.056290
 30
0.0
 10
337.725450
 20
299.617350
 30
0.0
 10
351.017760
 20
298.675290
 30
0.0
 10
366.084200
 20
301.071100
 30
0.0
 10
365.095480
 20
303.252460
 30
0.0
 10
363.962200
 20
305.384970
 30
0.0
 10
363.057670
 20
307.250300
 30
0.0
 10
362.755200
 20
308.630100
 30
0.0
 10
373.238560
 20
308.392270
 30
0.0
 10
381.893320
 20
309.833220
 30
0.0
 10
389.228280
 20
312.337110
 30
0.0
 10
395.752200
 20
315.288100
 30
0.0
 10
391.570000
 20
318.103190
 30
0.0
 10
388.498820
 20
320.705100
 30
0.0
 10
386.345090
 20
323.085750
 30
0.0
 10
384.915200
 20
325.237100
 30
0.0
 10
386.755110
 20
325.933760
 30
0.0
 10
393.443200
 20
325.768100
 30
0.0
 10
403.334540
 20
327.454190
 30
0.0
 10
414.784200
 20
333.706100
 30
0.0
 10
411.090570
 20
335.854510
 30
0.0
 10
407.387200
 20
338.198100
 30
0.0
 10
404.534320
 20
340.083440
 30
0.0
 10
403.392200
 20
340.857100
 30
0.0
 10
413.292090
 20
342.092130
 30
0.0
 10
419.426320
 20
344.859600
 30
0.0
 10
422.820250
 20
348.032070
 30
0.0
 10
424.499200
 20
350.482100
 30
0.0
 10
420.189000
 20
350.724460
 30
0.0
 10
416.820320
 20
351.356720
 30
0.0
 10
414.423840
 20
352.263670
 30
0.0
 10
413.030200
 20
353.330100
 30
0.0
 10
419.948000
 20
357.216830
 30
0.0
 10
428.152320
 20
363.485470
 30
0.0
 10
435.597840
 20
370.996680
 30
0.0
 10
440.239200
 20
378.611100
 30
0.0
 10
427.781570
 20
374.019130
 30
0.0
 10
415.762700
 20
370.837350
 30
0.0
 10
406.578070
 20
369.101190
 30
0.0
 10
402.623200
 20
368.846100
 30
0.0
 10
404.676450
 20
371.139080
 30
0.0
 10
407.262200
 20
374.139220
 30
0.0
 10
410.059450
 20
377.234800
 30
0.0
 10
412.747200
 20
379.814100
 30
0.0
 10
407.812680
 20
379.823800
 30
0.0
 10
401.108070
 20
378.614580
 30
0.0
 10
394.114530
 20
376.378610
 30
0.0
 10
388.313200
 20
373.308080
 30
0.0
 10
389.423390
 20
377.434380
 30
0.0
 10
390.543700
 20
380.234200
 30
0.0
 10
391.409760
 20
381.826720
 30
0.0
 10
391.757200
 20
382.331080
 30
0.0
 10
386.823210
 20
381.251240
 30
0.0
 10
380.387820
 20
379.223580
 30
0.0
 10
373.291870
 20
375.806930
 30
0.0
 10
366.376200
 20
370.560080
 30
0.0
 10
366.441840
 20
371.818250
 30
0.0
 10
366.646320
 20
374.866200
 30
0.0
 10
367.000990
 20
378.614100
 30
0.0
 10
367.517200
 20
381.972080
 30
0.0
 10
360.549170
 20
379.393580
 30
0.0
 10
351.624950
 20
375.219830
 30
0.0
 10
342.919360
 20
369.406960
 30
0.0
 10
336.607200
 20
361.911080
 30
0.0
 10
336.206500
 20
362.769860
 30
0.0
 10
335.987570
 20
363.871830
 30
0.0
 10
335.919960
 20
365.145170
 30
0.0
 10
335.973200
 20
366.518080
 30
0.0
 10
339.993890
 20
370.115690
 30
0.0
 10
344.108700
 20
374.507450
 30
0.0
 10
348.749260
 20
379.517030
 30
0.0
 10
354.347200
 20
384.968080
 30
0.0
 10
370.313620
 20
396.431890
 30
0.0
 10
385.764320
 20
406.572330
 30
0.0
 10
394.859710
 20
417.670140
 30
0.0
 10
391.760200
 20
432.006080
 30
0.0
 10
381.758590
 20
446.604440
 30
0.0
 10
372.053240
 20
458.498650
 30
0.0
 10
362.198120
 20
466.180330
 30
0.0
 10
351.747200
 20
468.141080
 30
0.0
 10
354.368700
 20
474.471030
 30
0.0
 10
357.177700
 20
480.606450
 30
0.0
 10
360.231950
 20
486.464940
 30
0.0
 10
363.589200
 20
491.964080
 30
0.0
 10
371.644700
 20
511.533670
 30
0.0
 10
367.287700
 20
526.169580
 30
0.0
 10
351.612450
 20
535.581740
 30
0.0
 10
325.713200
 20
539.480080
 30
0.0
 10
303.597400
 20
544.025630
 30
0.0
 10
286.401320
 20
551.406680
 30
0.0
 10
272.285680
 20
554.815930
 30
0.0
 10
259.412000
 20
547.445000
 30
0.0
 10
240.026080
 20
565.874670
 30
0.0
 10
219.441370
 20
551.965370
 30
0.0
 10
195.112480
 20
527.361640
 30
0.0
 10
164.494000
 20
513.708000
 30
0.0
 10
138.148390
 20
506.927760
 30
0.0
 10
125.065870
 20
492.970120
 30
0.0
 10
124.327420
 20
478.630920
 30
0.0
 10
135.014000
 20
470.706000
 30
0.0
 10
128.397840
 20
468.500190
 30
0.0
 10
122.279500
 20
464.850250
 30
0.0
 10
116.722910
 20
459.633190
 30
0.0
 10
111.792000
 20
452.726000
 30
0.0
 10
107.701180
 20
440.636910
 30
0.0
 10
113.714820
 20
436.598500
 30
0.0
 10
126.903310
 20
437.496590
 30
0.0
 10
144.337000
 20
440.217000
 30
0.0
 10
149.031230
 20
436.931280
 30
0.0
 10
153.172620
 20
433.268500
 30
0.0
 10
156.813950
 20
429.270470
 30
0.0
 10
160.008000
 20
424.979000
 30
0.0
 10
118.091270
 20
413.270360
 30
0.0
 10
109.446190
 20
403.736620
 30
0.0
 10
122.560760
 20
391.968830
 30
0.0
 10
145.923000
 20
373.558000
 30
0.0
 10
162.721130
 20
355.213970
 30
0.0
 10
178.199250
 20
339.430250
 30
0.0
 10
196.527750
 20
331.848910
 30
0.0
 10
221.877000
 20
338.112000
 30
0.0
 10
228.698840
 20
338.312380
 30
0.0
 10
236.236750
 20
339.131500
 30
0.0
 10
244.537030
 20
340.606130
 30
0.0
 10
253.646000
 20
342.773000
 30
0.0
 10
256.073890
 20
343.428690
 30
0.0
 10
258.417120
 20
344.083250
 30
0.0
 10
260.681050
 20
344.736690
 30
0.0
 10
262.871000
 20
345.389000
 30
0.0
 10
268.966220
 20
341.545020
 30
0.0
 10
273.789250
 20
336.378120
 30
0.0
 10
276.984400
 20
331.799420
 30
0.0
 10
278.196000
 20
329.720000
 30
0.0
 10
280.427590
 20
321.325470
 30
0.0
 10
282.178250
 20
313.006500
 30
0.0
 10
283.492780
 20
304.752030
 30
0.0
 10
284.416000
 20
296.551000
 30
0.0
 10
278.481690
 20
305.497810
 30
0.0
 10
270.642750
 20
311.151000
 30
0.0
 10
260.547440
 20
313.699940
 30
0.0
 10
247.844000
 20
313.334000
 30
0.0
 10
245.538310
 20
312.541890
 30
0.0
 10
244.822250
 20
311.857120
 30
0.0
 10
245.684560
 20
311.369050
 30
0.0
 10
248.114000
 20
311.167000
 30
0.0
 10
254.848530
 20
311.620090
 30
0.0
 10
260.784500
 20
311.196250
 30
0.0
 10
265.983220
 20
309.896030
 30
0.0
 10
270.506000
 20
307.720000
 30
0.0
 10
272.075080
 20
303.175390
 30
0.0
 10
274.268620
 20
297.392620
 30
0.0
 10
278.209850
 20
291.798290
 30
0.0
 10
285.022000
 20
287.819000
 30
0.0
 10
284.802410
 20
257.935190
 30
0.0
 10
282.701250
 20
227.913750
 30
0.0
 10
280.919970
 20
197.204190
 30
0.0
 10
281.660000
 20
165.256000
 30
0.0
 10
279.887160
 20
166.636910
 30
0.0
 10
278.063500
 20
168.034500
 30
0.0
 10
276.188840
 20
169.448590
 30
0.0
 10
274.263000
 20
170.879000
 30
0.0
 10
271.693810
 20
179.780190
 30
0.0
 10
268.314250
 20
189.015500
 30
0.0
 10
264.410810
 20
198.201310
 30
0.0
 10
260.270000
 20
206.954000
 30
0.0
 10
265.096120
 20
213.773050
 30
0.0
 10
268.823500
 20
221.195370
 30
0.0
 10
271.237630
 20
227.653010
 30
0.0
 10
272.124000
 20
231.578000
 30
0.0
 10
271.026610
 20
230.816280
 30
0.0
 10
269.683870
 20
229.959500
 30
0.0
 10
268.547200
 20
229.260220
 30
0.0
 10
268.068000
 20
228.971000
 30
0.0
 10
268.887390
 20
230.472420
 30
0.0
 10
270.464370
 20
234.521870
 30
0.0
 10
271.477170
 20
240.437140
 30
0.0
 10
270.604000
 20
247.536000
 30
0.0
 10
269.900230
 20
246.460090
 30
0.0
 10
268.751620
 20
244.948250
 30
0.0
 10
267.510950
 20
243.529030
 30
0.0
 10
266.531000
 20
242.731000
 30
0.0
 10
266.447620
 20
247.155480
 30
0.0
 10
265.087750
 20
252.834620
 30
0.0
 10
262.892750
 20
258.792200
 30
0.0
 10
260.304000
 20
264.052000
 30
0.0
 10
259.860250
 20
262.170830
 30
0.0
 10
259.118000
 20
259.441120
 30
0.0
 10
258.420750
 20
256.982360
 30
0.0
 10
258.112000
 20
255.914000
 30
0.0
 10
256.128720
 20
261.367750
 30
0.0
 10
252.811750
 20
267.717750
 30
0.0
 10
249.306910
 20
273.217620
 30
0.0
 10
246.760000
 20
276.121000
 30
0.0
 10
246.785220
 20
273.729190
 30
0.0
 10
246.292750
 20
270.971000
 30
0.0
 10
245.694910
 20
268.694310
 30
0.0
 10
245.404000
 20
267.747000
 30
0.0
 10
244.497550
 20
268.984780
 30
0.0
 10
241.809370
 20
271.945500
 30
0.0
 10
237.386260
 20
275.500220
 30
0.0
 10
231.275000
 20
278.520000
 30
0.0
 10
231.425470
 20
276.372110
 30
0.0
 10
231.103250
 20
274.488870
 30
0.0
 10
230.655410
 20
273.152200
 30
0.0
 10
230.429000
 20
272.644000
 30
0.0
 10
229.295910
 20
274.036000
 30
0.0
 10
226.236250
 20
277.297750
 30
0.0
 10
221.759470
 20
281.057870
 30
0.0
 10
216.375000
 20
283.945000
 30
0.0
 10
216.475560
 20
281.386000
 30
0.0
 10
216.006500
 20
278.845000
 30
0.0
 10
215.404690
 20
276.898000
 30
0.0
 10
215.107000
 20
276.121000
 30
0.0
 10
213.634510
 20
277.476480
 30
0.0
 10
209.723870
 20
280.625870
 30
0.0
 10
204.135290
 20
284.193570
 30
0.0
 10
197.629000
 20
286.804000
 30
0.0
 10
199.148750
 20
280.270390
 30
0.0
 10
201.759000
 20
273.787120
 30
0.0
 10
204.228250
 20
268.821300
 30
0.0
 10
205.325000
 20
266.840000
 30
0.0
 10
204.508260
 20
267.140440
 30
0.0
 10
202.528370
 20
267.946000
 30
0.0
 10
200.090800
 20
269.113060
 30
0.0
 10
197.901000
 20
270.498000
 30
0.0
 10
199.765480
 20
264.786250
 30
0.0
 10
202.647620
 20
259.207250
 30
0.0
 10
205.295200
 20
254.971870
 30
0.0
 10
206.456000
 20
253.291000
 30
0.0
 10
205.584030
 20
253.758130
 30
0.0
 10
203.497250
 20
254.919750
 30
0.0
 10
200.989340
 20
256.416250
 30
0.0
 10
198.854000
 20
257.888000
 30
0.0
 10
200.699920
 20
252.187280
 30
0.0
 10
203.545120
 20
246.361500
 30
0.0
 10
206.156510
 20
241.827220
 30
0.0
 10
207.301000
 20
240.001000
 30
0.0
 10
206.582080
 20
240.189030
 30
0.0
 10
204.851870
 20
240.719250
 30
0.0
 10
202.750230
 20
241.540840
 30
0.0
 10
200.917000
 20
242.603000
 30
0.0
 10
202.863260
 20
239.385940
 30
0.0
 10
206.678620
 20
234.363250
 30
0.0
 10
211.193170
 20
229.124940
 30
0.0
 10
215.237000
 20
225.261000
 30
0.0
 10
214.139970
 20
225.436310
 30
0.0
 10
211.638000
 20
225.854250
 30
0.0
 10
208.914780
 20
226.352810
 30
0.0
 10
207.154000
 20
226.770000
 30
0.0
 10
211.330720
 20
222.437940
 30
0.0
 10
216.447750
 20
218.113000
 30
0.0
 10
221.438410
 20
214.573310
 30
0.0
 10
225.236000
 20
212.597000
 30
0.0
 10
224.320440
 20
212.218140
 30
0.0
 10
222.678500
 20
211.968370
 30
0.0
 10
220.972810
 20
211.832420
 30
0.0
 10
219.866000
 20
211.795000
 30
0.0
 10
224.782190
 20
208.598160
 30
0.0
 10
229.769250
 20
206.941250
 30
0.0
 10
233.635440
 20
206.318220
 30
0.0
 10
235.189000
 20
206.223000
 30
0.0
 10
235.140060
 20
206.017590
 30
0.0
 10
234.937750
 20
205.535250
 30
0.0
 10
234.498810
 20
204.976780
 30
0.0
 10
233.740000
 20
204.543000
 30
0.0
 10
237.843410
 20
203.578160
 30
0.0
 10
244.224000
 20
203.497750
 30
0.0
 10
251.376340
 20
204.173720
 30
0.0
 10
257.795000
 20
205.478000
 30
0.0
 10
259.804190
 20
198.834780
 30
0.0
 10
261.603000
 20
191.921000
 30
0.0
 10
263.249560
 20
184.824970
 30
0.0
 10
264.802000
 20
177.635000
 30
0.0
 10
249.653220
 20
187.796910
 30
0.0
 10
233.661250
 20
197.884000
 30
0.0
 10
217.575910
 20
207.482090
 30
0.0
 10
202.147000
 20
216.177000
 30
0.0
 10
202.458500
 20
216.128500
 30
0.0
 10
202.770000
 20
216.080000
 30
0.0
 10
203.081500
 20
216.031500
 30
0.0
 10
203.393000
 20
215.983000
 30
0.0
 10
202.802690
 20
232.492110
 30
0.0
 10
199.438500
 20
248.152120
 30
0.0
 10
195.088810
 20
260.654080
 30
0.0
 10
191.542000
 20
267.689000
 30
0.0
 10
190.714220
 20
265.229220
 30
0.0
 10
189.618500
 20
262.438500
 30
0.0
 10
188.662280
 20
260.151780
 30
0.0
 10
188.253000
 20
259.204000
 30
0.0
 10
187.688110
 20
262.748030
 30
0.0
 10
185.359120
 20
271.354000
 30
0.0
 10
180.314570
 20
281.982720
 30
0.0
 10
171.603000
 20
291.595000
 30
0.0
 10
171.751010
 20
288.990730
 30
0.0
 10
171.671120
 20
285.119620
 30
0.0
 10
171.328920
 20
281.283950
 30
0.0
 10
170.690000
 20
278.786000
 30
0.0
 10
165.540420
 20
285.899280
 30
0.0
 10
157.259120
 20
293.594000
 30
0.0
 10
147.295760
 20
300.718720
 30
0.0
 10
137.100000
 20
306.122000
 30
0.0
 10
138.184010
 20
302.922330
 30
0.0
 10
139.232120
 20
298.434620
 30
0.0
 10
140.023170
 20
294.437610
 30
0.0
 10
140.336000
 20
292.710000
 30
0.0
 10
130.898680
 20
298.683970
 30
0.0
 10
118.700200
 20
304.014250
 30
0.0
 10
107.235520
 20
307.748160
 30
0.0
 10
99.999600
 20
308.933000
 30
0.0
 10
102.728580
 20
305.334840
 30
0.0
 10
104.802700
 20
300.778750
 30
0.0
 10
106.121120
 20
296.868780
 30
0.0
 10
106.583000
 20
295.209000
 30
0.0
 10
102.891460
 20
296.044440
 30
0.0
 10
93.658887
 20
297.535750
 30
0.0
 10
81.648373
 20
298.160440
 30
0.0
 10
69.623000
 20
296.396000
 30
0.0
 10
73.111767
 20
292.496970
 30
0.0
 10
76.273487
 20
287.696250
 30
0.0
 10
78.567214
 20
283.621910
 30
0.0
 10
79.452000
 20
281.902000
 30
0.0
 10
75.885694
 20
282.918950
 30
0.0
 10
66.884850
 20
284.786870
 30
0.0
 10
54.996581
 20
285.731360
 30
0.0
 10
42.768000
 20
283.978000
 30
0.0
 10
45.905142
 20
280.129220
 30
0.0
 10
47.929612
 20
275.792000
 30
0.0
 10
49.016151
 20
272.249030
 30
0.0
 10
49.339500
 20
270.783000
 30
0.0
 10
45.910411
 20
271.154090
 30
0.0
 10
37.082887
 20
271.422250
 30
0.0
 10
25.046545
 20
270.319780
 30
0.0
 10
11.991000
 20
266.579000
 30
0.0
 10
21.360631
 20
258.259520
 30
0.0
 10
31.190125
 20
251.755120
 30
0.0
 10
38.945830
 20
247.519670
 30
0.0
 10
42.094100
 20
246.007000
 30
0.0
 10
40.414697
 20
245.496060
 30
0.0
 10
36.248800
 20
244.381750
 30
0.0
 10
30.904878
 20
243.291810
 30
0.0
 10
25.691400
 20
242.854000
 30
0.0
 10
35.649487
 20
235.933810
 30
0.0
 10
47.084025
 20
230.465250
 30
0.0
 10
56.504475
 20
226.872810
 30
0.0
 10
60.420300
 20
225.581000
 30
0.0
 10
58.448266
 20
225.270700
 30
0.0
 10
53.675375
 20
224.598620
 30
0.0
 10
47.816447
 20
223.952980
 30
0.0
 10
42.586300
 20
223.722000
 30
0.0
 10
52.498063
 20
216.799280
 30
0.0
 10
64.170375
 20
210.892250
 30
0.0
 10
73.893925
 20
206.778090
 30
0.0
 10
77.959400
 20
205.234000
 30
0.0
 10
76.573748
 20
204.660690
 30
0.0
 10
73.144337
 20
203.406000
 30
0.0
 10
68.762483
 20
202.167810
 30
0.0
 10
64.519500
 20
201.644000
 30
0.0
 10
71.567500
 20
198.837800
 30
0.0
 10
83.822750
 20
195.401870
 30
0.0
 10
97.466249
 20
192.469760
 30
0.0
 10
108.679000
 20
191.175000
 30
0.0
 10
107.142630
 20
190.297660
 30
0.0
 10
103.581060
 20
188.312000
 30
0.0
 10
99.565614
 20
186.187590
 30
0.0
 10
96.667600
 20
184.894000
 30
0.0
 10
108.370960
 20
183.005730
 30
0.0
 10
121.232950
 20
182.273870
 30
0.0
 10
132.936870
 20
182.652570
 30
0.0
 10
141.166000
 20
184.096000
 30
0.0
 10
139.970580
 20
182.144060
 30
0.0
 10
137.231370
 20
179.246000
 30
0.0
 10
134.252730
 20
176.454440
 30
0.0
 10
132.339000
 20
174.822000
 30
0.0
 10
145.088140
 20
176.073450
 30
0.0
 10
155.366870
 20
179.958620
 30
0.0
 10
162.228420
 20
184.061480
 30
0.0
 10
164.726000
 20
185.966000
 30
0.0
 10
164.524530
 20
185.041390
 30
0.0
 10
163.966250
 20
182.842620
 30
0.0
 10
163.120340
 20
180.232300
 30
0.0
 10
162.056000
 20
178.073000
 30
0.0
 10
170.116360
 20
181.882260
 30
0.0
 10
181.073870
 20
190.334870
 30
0.0
 10
192.355200
 20
200.972800
 30
0.0
 10
201.387000
 20
211.338000
 30
0.0
 10
215.418110
 20
202.030840
 30
0.0
 10
230.034120
 20
191.807000
 30
0.0
 10
244.642830
 20
181.146650
 30
0.0
 10
258.652000
 20
170.530000
 30
0.0
 10
250.602800
 20
169.105480
 30
0.0
 10
243.145620
 20
167.199370
 30
0.0
 10
236.120640
 20
164.909080
 30
0.0
 10
229.368000
 20
162.332000
 30
0.0
 10
221.548730
 20
169.556170
 30
0.0
 10
213.138370
 20
175.342120
 30
0.0
 10
205.785320
 20
179.289260
 30
0.0
 10
201.138000
 20
180.997000
 30
0.0
 10
202.330630
 20
179.415390
 30
0.0
 10
202.912750
 20
177.758120
 30
0.0
 10
203.102250
 20
176.451300
 30
0.0
 10
203.117000
 20
175.921000
 30
0.0
 10
200.498530
 20
177.173050
 30
0.0
 10
193.987750
 20
179.848120
 30
0.0
 10
185.601590
 20
182.324640
 30
0.0
 10
177.357000
 20
182.981000
 30
0.0
 10
178.734130
 20
181.831440
 30
0.0
 10
180.709750
 20
179.984000
 30
0.0
 10
182.545500
 20
178.031560
 30
0.0
 10
183.503000
 20
176.567000
 30
0.0
 10
177.804200
 20
177.308950
 30
0.0
 10
170.401120
 20
176.634620
 30
0.0
 10
162.475480
 20
174.909730
 30
0.0
 10
155.209000
 20
172.500000
 30
0.0
 10
157.528550
 20
171.523090
 30
0.0
 10
160.815120
 20
169.945250
 30
0.0
 10
163.752390
 20
168.477280
 30
0.0
 10
165.024000
 20
167.830000
 30
0.0
 10
157.818230
 20
166.233720
 30
0.0
 10
149.617870
 20
163.048750
 30
0.0
 10
142.505580
 20
159.456910
 30
0.0
 10
138.564000
 20
156.640000
 30
0.0
 10
141.518700
 20
156.225330
 30
0.0
 10
144.613370
 20
155.056620
 30
0.0
 10
147.053110
 20
153.838600
 30
0.0
 10
148.043000
 20
153.276000
 30
0.0
 10
145.923910
 20
151.947580
 30
0.0
 10
140.902500
 20
148.344870
 30
0.0
 10
134.982600
 20
143.041730
 30
0.0
 10
130.168000
 20
136.612000
 30
0.0
 10
133.620640
 20
136.410080
 30
0.0
 10
137.338870
 20
135.633370
 30
0.0
 10
140.311420
 20
134.792730
 30
0.0
 10
141.527000
 20
134.399000
 30
0.0
 10
139.381890
 20
133.213670
 30
0.0
 10
134.293870
 20
129.894870
 30
0.0
 10
128.283920
 20
124.798390
 30
0.0
 10
123.373000
 20
118.280000
 30
0.0
 10
126.576170
 20
117.779610
 30
0.0
 10
129.412120
 20
116.342370
 30
0.0
 10
131.438260
 20
114.840450
 30
0.0
 10
132.212000
 20
114.146000
 30
0.0
 10
130.018810
 20
112.680690
 30
0.0
 10
124.847750
 20
108.602020
 30
0.0
 10
118.811560
 20
102.385890
 30
0.0
 10
114.023000
 20
94.508200
 30
0.0
 10
122.765580
 20
95.174625
 30
0.0
 10
131.444870
 20
97.146200
 30
0.0
 10
138.094480
 20
99.214976
 30
0.0
 10
140.748000
 20
100.173000
 30
0.0
 10
140.199020
 20
99.150731
 30
0.0
 10
138.765870
 20
96.686700
 30
0.0
 10
136.769290
 20
93.685070
 30
0.0
 10
134.530000
 20
91.050000
 30
0.0
 10
142.419920
 20
92.447741
 30
0.0
 10
150.325120
 20
95.213500
 30
0.0
 10
156.412510
 20
97.919786
 30
0.0
 10
158.849000
 20
99.139100
 30
0.0
 10
158.069950
 20
98.074555
 30
0.0
 10
156.147620
 20
95.535237
 30
0.0
 10
153.704230
 20
92.502628
 30
0.0
 10
151.362000
 20
89.958200
 30
0.0
 10
159.232660
 20
91.331366
 30
0.0
 10
167.455250
 20
94.001525
 30
0.0
 10
173.929220
 20
96.604222
 30
0.0
 10
176.554000
 20
97.775000
 30
0.0
 10
175.917230
 20
96.549269
 30
0.0
 10
174.334620
 20
93.678225
 30
0.0
 10
172.297700
 20
90.371095
 30
0.0
 10
170.298000
 20
87.837100
 30
0.0
 10
175.163520
 20
90.117537
 30
0.0
 10
183.066620
 20
94.902675
 30
0.0
 10
191.385420
 20
100.570750
 30
0.0
 10
197.498000
 20
105.500000
 30
0.0
 10
197.046660
 20
104.011500
 30
0.0
 10
195.994750
 20
100.626170
 30
0.0
 10
194.795470
 20
96.964287
 30
0.0
 10
193.902000
 20
94.646100
 30
0.0
 10
200.371520
 20
99.249994
 30
0.0
 10
206.972370
 20
104.977890
 30
0.0
 10
212.513290
 20
110.686120
 30
0.0
 10
215.803000
 20
115.231000
 30
0.0
 10
216.276020
 20
113.982450
 30
0.0
 10
216.615620
 20
111.835120
 30
0.0
 10
216.793420
 20
109.624980
 30
0.0
 10
216.781000
 20
108.188000
 30
0.0
 10
221.231190
 20
114.492890
 30
0.0
 10
224.064000
 20
121.968620
 30
0.0
 10
225.558810
 20
128.214550
 30
0.0
 10
225.995000
 20
130.830000
 30
0.0
 10
226.428160
 20
129.762580
 30
0.0
 10
227.403750
 20
127.283370
 30
0.0
 10
228.435970
 20
124.476980
 30
0.0
 10
229.039000
 20
122.428000
 30
0.0
 10
231.031190
 20
128.525190
 30
0.0
 10
232.078750
 20
138.651000
 30
0.0
 10
232.192940
 20
149.858310
 30
0.0
 10
231.385000
 20
159.200000
 30
0.0
 10
239.393330
 20
161.237000
 30
0.0
 10
247.672120
 20
162.995000
 30
0.0
 10
256.220360
 20
164.444750
 30
0.0
 10
265.037000
 20
165.557000
 30
0.0
 10
270.074200
 20
161.561250
 30
0.0
 10
274.833620
 20
157.719250
 30
0.0
 10
279.275980
 20
154.062870
 30
0.0
 10
283.362000
 20
150.624000
 30
0.0
 10
288.783830
 20
125.226960
 30
0.0
 10
298.202120
 20
98.499887
 30
0.0
 10
312.506110
 20
70.220066
 30
0.0
 10
332.585000
 20
40.164800
 30
0.0
 10
339.674250
 20
39.081600
 30
0.0
 10
346.763500
 20
37.998400
 30
0.0
 10
353.852750
 20
36.915200
 30
0.0
 10
360.942000
 20
35.832000
 30
0.0
 10
330.771640
 20
74.266824
 30
0.0
 10
310.820120
 20
110.424040
 30
0.0
 10
299.032540
 20
144.659730
 30
0.0
 10
293.354000
 20
177.330000
 30
0.0
 10
302.358220
 20
180.570510
 30
0.0
 10
310.642250
 20
184.000120
 30
0.0
 10
318.370910
 20
187.581420
 30
0.0
 10
325.709000
 20
191.277000
 30
0.0
 10
334.689440
 20
185.115670
 30
0.0
 10
344.505750
 20
180.607620
 30
0.0
 10
353.048190
 20
177.798510
 30
0.0
 10
358.207000
 20
176.734000
 30
0.0
 10
356.837420
 20
178.359580
 30
0.0
 10
356.036620
 20
180.326120
 30
0.0
 10
355.661260
 20
181.983110
 30
0.0
 10
355.568000
 20
182.680000
 30
0.0
 10
358.324170
 20
181.523940
 30
0.0
 10
365.126120
 20
179.134500
 30
0.0
 10
373.774010
 20
177.129810
 30
0.0
 10
382.068000
 20
177.128010
 30
0.0
 10
380.582920
 20
178.134640
 30
0.0
 10
378.433620
 20
179.775760
 30
0.0
 10
376.412760
 20
181.535760
 30
0.0
 10
375.313000
 20
182.899010
 30
0.0
 10
380.740530
 20
182.678640
 30
0.0
 10
387.342000
 20
183.979260
 30
0.0
 10
394.358970
 20
186.377510
 30
0.0
 10
401.033000
 20
189.450010
 30
0.0
 10
398.944810
 20
190.238950
 30
0.0
 10
396.215000
 20
191.588510
 30
0.0
 10
393.843690
 20
192.863820
 30
0.0
 10
392.831000
 20
193.430010
 30
0.0
 10
399.841830
 20
195.736560
 30
0.0
 10
407.684120
 20
199.722630
 30
0.0
 10
414.403860
 20
204.005150
 30
0.0
 10
418.047000
 20
207.201010
 30
0.0
 10
415.064860
 20
207.318290
 30
0.0
 10
411.868870
 20
208.173010
 30
0.0
 10
409.319950
 20
209.142480
 30
0.0
 10
408.279000
 20
209.604010
 30
0.0
 10
410.255330
 20
211.136840
 30
0.0
 10
414.893120
 20
215.221630
 30
0.0
 10
420.255610
 20
221.087870
 30
0.0
 10
424.406000
 20
227.965010
 30
0.0
 10
420.949470
 20
227.822120
 30
0.0
 10
417.171000
 20
228.224380
 30
0.0
 10
414.128280
 20
228.764460
 30
0.0
 10
412.879000
 20
229.035010
 30
0.0
 10
415.104120
 20
230.486650
 30
0.0
 10
420.295500
 20
234.424630
 30
0.0
 10
426.227130
 20
240.223550
 30
0.0
 10
430.673000
 20
247.258010
 30
0.0
 10
427.228360
 20
247.378570
 30
0.0
 10
423.804620
 20
248.396510
 30
0.0
 10
421.179830
 20
249.559200
 30
0.0
 10
420.132000
 20
250.114010
 30
0.0
 10
422.446640
 20
251.853430
 30
0.0
 10
427.798120
 20
256.565380
 30
0.0
 10
433.797800
 20
263.490400
 30
0.0
 10
438.057000
 20
271.869010
 30
0.0
  0
ENDSEC
  0
SECTION
  2
OBJECTS
  0
DICTIONARY
  5
C
330
0
100
AcDbDictionary
  3
ACAD_GROUP
350
D
  3
ACAD_MLINESTYLE
350
17
  0
DICTIONARY
  5
D
330
C
100
AcDbDictionary
  0
DICTIONARY
  5
1A
330
C
100
AcDbDictionary
  0
DICTIONARY
  5
17
330
C
100
AcDbDictionary
  3
STANDARD
350
18
  0
DICTIONARY
  5
19
330
C
100
AcDbDictionary
  0
ENDSEC
  0
EOF
